  0
SECTION
  2
HEADER
  9
$ACADVER
  1
AC1015
  9
$ACADMAINTVER
 70
    20
  9
$DWGCODEPAGE
  3
ANSI_1252
  9
$INSBASE
 10
0.0
 20
0.0
 30
0.0
  9
$EXTMIN
 10
0.9805307641864828
 20
0.9879462492978063
 30
-0.0000000000112498
  9
$EXTMAX
 10
209.0066535642914
 20
296.0120551337162
 30
0.0000000000002956
  9
$LIMMIN
 10
0.0
 20
0.0
  9
$LIMMAX
 10
420.0
 20
297.0
  9
$ORTHOMODE
 70
     1
  9
$REGENMODE
 70
     1
  9
$FILLMODE
 70
     1
  9
$QTEXTMODE
 70
     0
  9
$MIRRTEXT
 70
     1
  9
$LTSCALE
 40
0.4
  9
$ATTMODE
 70
     1
  9
$TEXTSIZE
 40
3.5
  9
$TRACEWID
 40
1.0
  9
$TEXTSTYLE
  7
STANDARD
  9
$CLAYER
  8
0
  9
$CELTYPE
  6
CONTINUOUS
  9
$CECOLOR
 62
     7
  9
$CELTSCALE
 40
1.0
  9
$DISPSILH
 70
     0
  9
$DIMSCALE
 40
1.0
  9
$DIMASZ
 40
3.72
  9
$DIMEXO
 40
0.0
  9
$DIMDLI
 40
7.0
  9
$DIMRND
 40
0.0
  9
$DIMDLE
 40
0.0
  9
$DIMEXE
 40
1.5
  9
$DIMTP
 40
0.0
  9
$DIMTM
 40
0.0
  9
$DIMTXT
 40
2.5
  9
$DIMCEN
 40
0.0
  9
$DIMTSZ
 40
0.0
  9
$DIMTOL
 70
     0
  9
$DIMLIM
 70
     0
  9
$DIMTIH
 70
     0
  9
$DIMTOH
 70
     0
  9
$DIMSE1
 70
     0
  9
$DIMSE2
 70
     0
  9
$DIMTAD
 70
     1
  9
$DIMZIN
 70
     8
  9
$DIMBLK
  1

  9
$DIMASO
 70
     1
  9
$DIMSHO
 70
     1
  9
$DIMPOST
  1

  9
$DIMAPOST
  1
"
  9
$DIMALT
 70
     0
  9
$DIMALTD
 70
     2
  9
$DIMALTF
 40
0.0393700787401575
  9
$DIMLFAC
 40
1.0
  9
$DIMTOFL
 70
     1
  9
$DIMTVP
 40
0.0
  9
$DIMTIX
 70
     0
  9
$DIMSOXD
 70
     0
  9
$DIMSAH
 70
     1
  9
$DIMBLK1
  1
_OPEN15
  9
$DIMBLK2
  1
_OPEN15
  9
$DIMSTYLE
  2
PHOENIX
  9
$DIMCLRD
 70
     1
  9
$DIMCLRE
 70
     1
  9
$DIMCLRT
 70
     5
  9
$DIMTFAC
 40
0.6666666666666666
  9
$DIMGAP
 40
1.0
  9
$DIMJUST
 70
     0
  9
$DIMSD1
 70
     0
  9
$DIMSD2
 70
     0
  9
$DIMTOLJ
 70
     1
  9
$DIMTZIN
 70
     8
  9
$DIMALTZ
 70
     0
  9
$DIMALTTZ
 70
     0
  9
$DIMUPT
 70
     1
  9
$DIMDEC
 70
     6
  9
$DIMTDEC
 70
     6
  9
$DIMALTU
 70
     2
  9
$DIMALTTD
 70
     2
  9
$DIMTXSTY
  7
STANDARD
  9
$DIMAUNIT
 70
     0
  9
$DIMADEC
 70
     0
  9
$DIMALTRND
 40
0.0
  9
$DIMAZIN
 70
     0
  9
$DIMDSEP
 70
    46
  9
$DIMATFIT
 70
     0
  9
$DIMFRAC
 70
     0
  9
$DIMLDRBLK
  1

  9
$DIMLUNIT
 70
     2
  9
$DIMLWD
 70
    -2
  9
$DIMLWE
 70
    -2
  9
$DIMTMOVE
 70
     0
  9
$LUNITS
 70
     2
  9
$LUPREC
 70
     4
  9
$SKETCHINC
 40
1.0
  9
$FILLETRAD
 40
0.0
  9
$AUNITS
 70
     0
  9
$AUPREC
 70
     0
  9
$MENU
  1
.
  9
$ELEVATION
 40
0.0
  9
$PELEVATION
 40
0.0
  9
$THICKNESS
 40
0.0
  9
$LIMCHECK
 70
     0
  9
$CHAMFERA
 40
10.0
  9
$CHAMFERB
 40
10.0
  9
$CHAMFERC
 40
0.0
  9
$CHAMFERD
 40
0.0
  9
$SKPOLY
 70
     0
  9
$TDCREATE
 40
2451066.543413947
  9
$TDUCREATE
 40
2451066.460080614
  9
$TDUPDATE
 40
2456898.633739653
  9
$TDUUPDATE
 40
2456898.550406319
  9
$TDINDWG
 40
0.0234929630
  9
$TDUSRTIMER
 40
0.0234929630
  9
$USRTIMER
 70
     1
  9
$ANGBASE
 50
0.0
  9
$ANGDIR
 70
     0
  9
$PDMODE
 70
    35
  9
$PDSIZE
 40
-2.0
  9
$PLINEWID
 40
0.0
  9
$SPLFRAME
 70
     0
  9
$SPLINETYPE
 70
     6
  9
$SPLINESEGS
 70
     8
  9
$HANDSEED
  5
2978
  9
$SURFTAB1
 70
     6
  9
$SURFTAB2
 70
     6
  9
$SURFTYPE
 70
     6
  9
$SURFU
 70
     6
  9
$SURFV
 70
     6
  9
$UCSBASE
  2

  9
$UCSNAME
  2

  9
$UCSORG
 10
0.0
 20
0.0
 30
0.0
  9
$UCSXDIR
 10
1.0
 20
0.0
 30
0.0
  9
$UCSYDIR
 10
0.0
 20
1.0
 30
0.0
  9
$UCSORTHOREF
  2

  9
$UCSORTHOVIEW
 70
     0
  9
$UCSORGTOP
 10
0.0
 20
0.0
 30
0.0
  9
$UCSORGBOTTOM
 10
0.0
 20
0.0
 30
0.0
  9
$UCSORGLEFT
 10
0.0
 20
0.0
 30
0.0
  9
$UCSORGRIGHT
 10
0.0
 20
0.0
 30
0.0
  9
$UCSORGFRONT
 10
0.0
 20
0.0
 30
0.0
  9
$UCSORGBACK
 10
0.0
 20
0.0
 30
0.0
  9
$PUCSBASE
  2

  9
$PUCSNAME
  2

  9
$PUCSORG
 10
0.0
 20
0.0
 30
0.0
  9
$PUCSXDIR
 10
1.0
 20
0.0
 30
0.0
  9
$PUCSYDIR
 10
0.0
 20
1.0
 30
0.0
  9
$PUCSORTHOREF
  2

  9
$PUCSORTHOVIEW
 70
     0
  9
$PUCSORGTOP
 10
0.0
 20
0.0
 30
0.0
  9
$PUCSORGBOTTOM
 10
0.0
 20
0.0
 30
0.0
  9
$PUCSORGLEFT
 10
0.0
 20
0.0
 30
0.0
  9
$PUCSORGRIGHT
 10
0.0
 20
0.0
 30
0.0
  9
$PUCSORGFRONT
 10
0.0
 20
0.0
 30
0.0
  9
$PUCSORGBACK
 10
0.0
 20
0.0
 30
0.0
  9
$USERI1
 70
     0
  9
$USERI2
 70
     0
  9
$USERI3
 70
     0
  9
$USERI4
 70
     0
  9
$USERI5
 70
     0
  9
$USERR1
 40
0.0
  9
$USERR2
 40
0.0
  9
$USERR3
 40
0.0
  9
$USERR4
 40
0.0
  9
$USERR5
 40
0.0
  9
$WORLDVIEW
 70
     1
  9
$SHADEDGE
 70
     3
  9
$SHADEDIF
 70
    70
  9
$TILEMODE
 70
     1
  9
$MAXACTVP
 70
    16
  9
$PINSBASE
 10
0.0
 20
0.0
 30
0.0
  9
$PLIMCHECK
 70
     0
  9
$PEXTMIN
 10
1.000000000000000E+20
 20
1.000000000000000E+20
 30
1.000000000000000E+20
  9
$PEXTMAX
 10
-1.000000000000000E+20
 20
-1.000000000000000E+20
 30
-1.000000000000000E+20
  9
$PLIMMIN
 10
0.0
 20
0.0
  9
$PLIMMAX
 10
420.0
 20
297.0
  9
$UNITMODE
 70
     0
  9
$VISRETAIN
 70
     0
  9
$PLINEGEN
 70
     0
  9
$PSLTSCALE
 70
     1
  9
$TREEDEPTH
 70
  3020
  9
$CMLSTYLE
  2
STANDARD
  9
$CMLJUST
 70
     0
  9
$CMLSCALE
 40
1.0
  9
$PROXYGRAPHICS
 70
     1
  9
$MEASUREMENT
 70
     0
  9
$CELWEIGHT
370
    -1
  9
$ENDCAPS
280
     0
  9
$JOINSTYLE
280
     0
  9
$LWDISPLAY
290
     0
  9
$INSUNITS
 70
     0
  9
$HYPERLINKBASE
  1

  9
$STYLESHEET
  1
HP_SW.ctb
  9
$XEDIT
290
     1
  9
$CEPSNTYPE
380
     0
  9
$PSTYLEMODE
290
     1
  9
$FINGERPRINTGUID
  2
{1E347148-0A3A-4706-BC55-D1CB6C64F3B8}
  9
$VERSIONGUID
  2
{BF932C59-21C3-4C70-8CB0-A96DC5FD0B04}
  9
$EXTNAMES
290
     1
  9
$PSVPSCALE
 40
0.0
  9
$OLESTARTUP
290
     0
  0
ENDSEC
  0
SECTION
  2
CLASSES
  0
CLASS
  1
PH_VARS
  2
PhoenixVars
  3
PHOENIX7010
 90
        0
280
     0
281
     0
  0
CLASS
  1
ACMESCOPE
  2
AcMeScope
  3
ACME_MODULE_NAME
 90
        0
280
     0
281
     0
  0
CLASS
  1
ACMECOMMANDHISTORY
  2
AcMeCommandHistory
  3
ACME_MODULE_NAME
 90
        0
280
     0
281
     0
  0
CLASS
  1
AcRfInsAdjusterMgr
  2
AcRfInsAdjusterMgr
  3
ACME_MODULE_NAME
 90
    32768
280
     0
281
     0
  0
CLASS
  1
ACGREFMASTER
  2
AcGrefMaster
  3
"AcadRfServer"
 90
        0
280
     0
281
     0
  0
CLASS
  1
AmiMaster
  2
AmiMaster
  3
"AmiServices"
 90
        0
280
     0
281
     0
  0
CLASS
  1
ACASGREFMASTER
  2
AcAsGrefMaster
  3
"AutoSurfResolver"
 90
        0
280
     0
281
     0
  0
CLASS
  1
ADAPPL
  2
AcAdAppl
  3
DesignerServices
 90
        0
280
     0
281
     0
  0
CLASS
  1
DEPMGR
  2
AcAdDepMgr
  3
DesignerServices
 90
        0
280
     0
281
     0
  0
CLASS
  1
PARAMMGR
  2
AcAdParamMgr
  3
DesignerServices
 90
        0
280
     0
281
     0
  0
CLASS
  1
PARAMSCOPE
  2
AcAdParamScope
  3
DesignerServices
 90
        0
280
     0
281
     0
  0
CLASS
  1
"IM_SYSVAR_MAN"
  2
AcImSysVarManager
  3
"ADAM"
 90
        0
280
     0
281
     0
  0
CLASS
  1
SYSTEM_VAR_INT
  2
AcImIntSysVar
  3
"ADAM"
 90
        0
280
     0
281
     0
  0
CLASS
  1
SYSTEM_VAR_REAL
  2
AcImRealSysVar
  3
"ADAM"
 90
        0
280
     0
281
     0
  0
CLASS
  1
SYSTEM_VAR_STR
  2
AcImStrSysVar
  3
"ADAM"
 90
        0
280
     0
281
     0
  0
CLASS
  1
NAMEDAPPL
  2
AcAdNamedAppl
  3
DesignerServices
 90
        0
280
     0
281
     0
  0
CLASS
  1
ADPART
  2
AcAdPart
  3
DesignerServices
 90
    32768
280
     0
281
     1
  0
CLASS
  1
ADBASE
  2
AcAdBase
  3
DesignerServices
 90
        0
280
     0
281
     0
  0
CLASS
  1
BODYID
  2
AcAdBodyId
  3
DesignerServices
 90
        0
280
     0
281
     0
  0
CLASS
  1
WORKPLANEDISPLAYMGR
  2
AcAdDisplayMgr
  3
DesignerServices
 90
        0
280
     0
281
     0
  0
CLASS
  1
ADHNTMPLT
  2
AdHoleNoteTemplateMgr
  3
DesignerServices
 90
        0
280
     0
281
     0
  0
CLASS
  1
AM_HNTEMPLATE_MGR_NAME
  2
AdHoleNoteTemplateMgrName
  3
DesignerServices
 90
        0
280
     0
281
     0
  0
CLASS
  1
AcAdGrefModule
  2
AcAdGrefModule
  3
AD_GREF_SERVICES_NSTR
 90
        0
280
     0
281
     0
  0
CLASS
  1
AM_DRAWING_MGR
  2
AcDmDwgMgr
  3
AcMechDwgViewMgmt
 90
        0
280
     0
281
     0
  0
CLASS
  1
AM_DWG_DOCUMENT
  2
AcDmDwgDocument
  3
AcMechDwgViewMgmt
 90
        0
280
     0
281
     0
  0
CLASS
  1
AM_DWG_SHEET
  2
AcDmSheet
  3
AcMechDwgViewMgmt
 90
        0
280
     0
281
     0
  0
CLASS
  1
AM_VIEWDIMPARMAP
  2
AcDmViewDimParMap
  3
AcMechDwgViewMgmt
 90
        0
280
     0
281
     0
  0
CLASS
  1
AM_DWGMGR_NAME
  2
AcDmDwgMgrName
  3
AcMechDwgViewMgmt
 90
        0
280
     0
281
     0
  0
CLASS
  1
ACAMPROJECT
  2
AcAmProject
  3
DesignerAssemblies
 90
        0
280
     0
281
     0
  0
CLASS
  1
ACAMGRCOMPSET
  2
AcAmGrCompSet
  3
DesignerAssemblies
 90
    32768
280
     0
281
     0
  0
CLASS
  1
ACAMGRCOMPDEFSET
  2
AcAmGrCompDefSet
  3
DesignerAssemblies
 90
    32768
280
     0
281
     0
  0
CLASS
  1
ACAMGRCOMPDEF
  2
AcAmGrCompDef
  3
DesignerAssemblies
 90
        0
280
     0
281
     0
  0
CLASS
  1
ACAMCOMPDEF
  2
AcAmCompDef
  3
DesignerAssemblies
 90
        0
280
     0
281
     0
  0
CLASS
  1
ACAMCOMPDEFMGR
  2
AcAmCompDefMgr
  3
DesignerAssemblies
 90
        0
280
     0
281
     0
  0
CLASS
  1
AMCONTEXTMGR
  2
AcAmContextMgr
  3
DesignerAssemblies
 90
        0
280
     0
281
     0
  0
CLASS
  1
ACAMCONTEXTMODELER
  2
AcAmContextModeler
  3
DesignerAssemblies
 90
        0
280
     0
281
     0
  0
CLASS
  1
ACAMDRAWINGMAN
  2
AcAmDrawingMan
  3
DesignerAssemblies
 90
        0
280
     0
281
     0
  0
CLASS
  1
ACDMVIEWGEOM
  2
AcDmViewGeometry
  3
AcMechDwgViewMgmt
 90
    32768
280
     0
281
     1
  0
CLASS
  1
ASSYSVARS
  2
AcAsSysVars
  3
"AutoSurf"
 90
        0
280
     0
281
     0
  0
CLASS
  1
ASSTATICVARS
  2
AcAsStaticVars
  3
"AutoSurf"
 90
    32768
280
     0
281
     0
  0
CLASS
  1
ASAPP
  2
AcAsAppObject
  3
"AutoSurf"
 90
        0
280
     0
281
     0
  0
CLASS
  1
AGDICTIONARY
  2
AgDictionary
  3
"AccelView"
 90
        0
280
     0
281
     0
  0
CLASS
  1
PH_ENTDIMREACTOR
  2
EntDimReactor
  3
PHOENIX7010
 90
        0
280
     0
281
     0
  0
CLASS
  1
PH_DIMENTREACTOR
  2
DimEntReactor
  3
PHOENIX7010
 90
    32768
280
     0
281
     0
  0
CLASS
  1
LWPOLYLINE
  2
AcDbPolyline
  3
ObjectDBX Classes
 90
        0
280
     0
281
     1
  0
CLASS
  1
PH_GROUP
  2
PhGroup
  3
PHOENIX7010
 90
        0
280
     0
281
     0
  0
CLASS
  1
ACDBDICTIONARYWDFLT
  2
AcDbDictionaryWithDefault
  3
ObjectDBX Classes
 90
        0
280
     0
281
     0
  0
CLASS
  1
MATERIAL
  2
AcDbMaterial
  3
ObjectDBX Classes
 90
     1153
280
     0
281
     0
  0
CLASS
  1
VISUALSTYLE
  2
AcDbVisualStyle
  3
ObjectDBX Classes
 90
     4095
280
     0
281
     0
  0
CLASS
  1
TABLESTYLE
  2
AcDbTableStyle
  3
ObjectDBX Classes
 90
     4095
280
     0
281
     0
  0
CLASS
  1
SCALE
  2
AcDbScale
  3
ObjectDBX Classes
 90
     1153
280
     0
281
     0
  0
CLASS
  1
MLEADERSTYLE
  2
AcDbMLeaderStyle
  3
ACDB_MLEADERSTYLE_CLASS
 90
     4095
280
     0
281
     0
  0
CLASS
  1
DICTIONARYVAR
  2
AcDbDictionaryVar
  3
ObjectDBX Classes
 90
        0
280
     0
281
     0
  0
CLASS
  1
CELLSTYLEMAP
  2
AcDbCellStyleMap
  3
ObjectDBX Classes
 90
     1152
280
     0
281
     0
  0
CLASS
  1
ACDBPLACEHOLDER
  2
AcDbPlaceHolder
  3
ObjectDBX Classes
 90
        0
280
     0
281
     0
  0
CLASS
  1
LAYOUT
  2
AcDbLayout
  3
ObjectDBX Classes
 90
        0
280
     0
281
     0
  0
ENDSEC
  0
SECTION
  2
TABLES
  0
TABLE
  2
VPORT
  5
8
330
0
100
AcDbSymbolTable
 70
     1
  0
VPORT
  5
2783
330
8
100
AcDbSymbolTableRecord
100
AcDbViewportTableRecord
  2
*ACTIVE
 70
     0
 10
0.0
 20
0.0
 11
1.0
 21
1.0
 12
104.993592164239
 22
148.500000691507
 13
0.0
 23
0.0
 14
10.0
 24
10.0
 15
10.0
 25
10.0
 16
0.0
 26
0.0
 36
1.0
 17
0.0
 27
0.0
 37
0.0
 40
297.1400617403709
 41
1.909415971394517
 42
50.0
 43
0.0
 44
0.0
 50
0.0
 51
0.0
 71
     0
 72
   800
 73
     1
 74
     1
 75
     0
 76
     0
 77
     0
 78
     0
281
     0
 65
     1
110
0.0
120
0.0
130
0.0
111
1.0
121
0.0
131
0.0
112
0.0
122
1.0
132
0.0
 79
     0
146
0.0
  0
ENDTAB
  0
TABLE
  2
LTYPE
  5
5
330
0
100
AcDbSymbolTable
 70
    14
  0
LTYPE
  5
14
330
5
100
AcDbSymbolTableRecord
100
AcDbLinetypeTableRecord
  2
BYBLOCK
 70
     0
  3

 72
    65
 73
     0
 40
0.0
  0
LTYPE
  5
15
330
5
100
AcDbSymbolTableRecord
100
AcDbLinetypeTableRecord
  2
BYLAYER
 70
     0
  3

 72
    65
 73
     0
 40
0.0
  0
LTYPE
  5
16
330
5
100
AcDbSymbolTableRecord
100
AcDbLinetypeTableRecord
  2
CONTINUOUS
 70
     0
  3
Solid line
 72
    65
 73
     0
 40
0.0
  0
LTYPE
  5
A8
330
5
100
AcDbSymbolTableRecord
100
AcDbLinetypeTableRecord
  2
PHANTOM2
 70
     0
  3
___ _ _ ___ _ _ ___ _ _ ___ _ _ ___ _ _ ___ _ _
 72
    65
 73
     6
 40
1.25
 49
0.625
 74
     0
 49
-0.125
 74
     0
 49
0.125
 74
     0
 49
-0.125
 74
     0
 49
0.125
 74
     0
 49
-0.125
 74
     0
  0
LTYPE
  5
D5
330
5
100
AcDbSymbolTableRecord
100
AcDbLinetypeTableRecord
  2
ASULTYPE
 70
     0
  3
Ausgezogene Linie
 72
    65
 73
     2
 40
3.0
 49
2.5
 74
     0
 49
0.5
 74
     0
  0
LTYPE
  5
D6
330
5
100
AcDbSymbolTableRecord
100
AcDbLinetypeTableRecord
  2
ASVLTYPE
 70
     0
  3
__ __ __ __ __ __ __ __ __ __ __ __ __ __ __ __ __ __ __ __ __
 72
    65
 73
     2
 40
0.75
 49
0.5
 74
     0
 49
-0.25
 74
     0
  0
LTYPE
  5
D8
330
5
100
AcDbSymbolTableRecord
100
AcDbLinetypeTableRecord
  2
VERDECKT
 70
     0
  3
__ __ __ __ __ __ __ __ __ __ __ __ __ __ __ __
 72
    65
 73
     2
 40
0.375
 49
0.25
 74
     0
 49
-0.125
 74
     0
  0
LTYPE
  5
D9
330
5
100
AcDbSymbolTableRecord
100
AcDbLinetypeTableRecord
  2
MITTE
 70
     0
  3
____ _ ____ _ ____ _ ____ _ ____ _ ____ _ ____ 
 72
    65
 73
     4
 40
2.0
 49
1.25
 74
     0
 49
-0.25
 74
     0
 49
0.25
 74
     0
 49
-0.25
 74
     0
  0
LTYPE
  5
857
330
5
100
AcDbSymbolTableRecord
100
AcDbLinetypeTableRecord
  2
DURCHGEHEND
 70
     0
  3

 72
    65
 73
     0
 40
0.0
  0
LTYPE
  5
858
330
5
100
AcDbSymbolTableRecord
100
AcDbLinetypeTableRecord
  2
GESTRICHELT
 70
     0
  3
7-3-7-3
 72
    65
 73
     4
 40
20.0
 49
7.0
 74
     0
 49
3.0
 74
     0
 49
7.0
 74
     0
 49
3.0
 74
     0
  0
LTYPE
  5
859
330
5
100
AcDbSymbolTableRecord
100
AcDbLinetypeTableRecord
  2
STRICHPUNKTIERT
 70
     0
  3
8-2-1-2
 72
    65
 73
     4
 40
13.0
 49
8.0
 74
     0
 49
2.0
 74
     0
 49
1.0
 74
     0
 49
2.0
 74
     0
  0
LTYPE
  5
85A
330
5
100
AcDbSymbolTableRecord
100
AcDbLinetypeTableRecord
  2
PUNKTIERT
 70
     0
  3
-256
 72
    65
 73
     1
 40
-256.0
 49
8.0
 74
     0
  0
LTYPE
  5
85B
330
5
100
AcDbSymbolTableRecord
100
AcDbLinetypeTableRecord
  2
STARTPFEIL
 70
     0
  3

 72
    65
 73
     0
 40
0.0
  0
LTYPE
  5
85C
330
5
100
AcDbSymbolTableRecord
100
AcDbLinetypeTableRecord
  2
ENDPFEIL
 70
     0
  3

 72
    65
 73
     0
 40
0.0
  0
LTYPE
  5
85D
330
5
100
AcDbSymbolTableRecord
100
AcDbLinetypeTableRecord
  2
PFEIL
 70
     0
  3

 72
    65
 73
     0
 40
0.0
  0
LTYPE
  5
2377
330
5
100
AcDbSymbolTableRecord
100
AcDbLinetypeTableRecord
  2
ACAD_ISO04W100
 70
     0
  3
____ . ____ . ____ . ____ . ____ . ____ . ____ 
 72
    65
 73
     4
 40
30.5
 49
24.0
 74
     0
 49
-3.0
 74
     0
 49
0.5
 74
     0
 49
-3.0
 74
     0
  0
ENDTAB
  0
TABLE
  2
LAYER
  5
2
102
{ACAD_XDICTIONARY
360
27F4
102
}
330
0
100
AcDbSymbolTable
 70
    16
  0
LAYER
  5
F
102
{ACAD_XDICTIONARY
360
28C8
102
}
330
2
100
AcDbSymbolTableRecord
100
AcDbLayerTableRecord
  2
0
 70
     0
 62
     7
  6
CONTINUOUS
370
    -3
390
2786
  0
LAYER
  5
44
102
{ACAD_XDICTIONARY
360
28CA
102
}
330
2
100
AcDbSymbolTableRecord
100
AcDbLayerTableRecord
  2
4
 70
     0
 62
     7
  6
CONTINUOUS
370
    -3
390
2786
  0
LAYER
  5
48
102
{ACAD_XDICTIONARY
360
28CC
102
}
330
2
100
AcDbSymbolTableRecord
100
AcDbLayerTableRecord
  2
2
 70
     0
 62
     7
  6
CONTINUOUS
370
    -3
390
2786
  0
LAYER
  5
4A
102
{ACAD_XDICTIONARY
360
28CE
102
}
330
2
100
AcDbSymbolTableRecord
100
AcDbLayerTableRecord
  2
3
 70
     0
 62
     7
  6
CONTINUOUS
370
    -3
390
2786
  0
LAYER
  5
B6
102
{ACAD_XDICTIONARY
360
28D0
102
}
330
2
100
AcDbSymbolTableRecord
100
AcDbLayerTableRecord
  2
AM_VIEWS
 70
     0
 62
    -7
  6
CONTINUOUS
370
    -3
390
2786
  0
LAYER
  5
B7
102
{ACAD_XDICTIONARY
360
28D2
102
}
330
2
100
AcDbSymbolTableRecord
100
AcDbLayerTableRecord
  2
AM_PARDIM
 70
     0
 62
     3
  6
CONTINUOUS
370
    -3
390
2786
  0
LAYER
  5
B8
102
{ACAD_XDICTIONARY
360
28D4
102
}
330
2
100
AcDbSymbolTableRecord
100
AcDbLayerTableRecord
  2
AM_REFDIM
 70
     0
 62
     4
  6
CONTINUOUS
370
    -3
390
2786
  0
LAYER
  5
B9
102
{ACAD_XDICTIONARY
360
28D6
102
}
330
2
100
AcDbSymbolTableRecord
100
AcDbLayerTableRecord
  2
AM_VIS
 70
     0
 62
     7
  6
CONTINUOUS
370
    -3
390
2786
  0
LAYER
  5
BA
102
{ACAD_XDICTIONARY
360
28D8
102
}
330
2
100
AcDbSymbolTableRecord
100
AcDbLayerTableRecord
  2
AM_HID
 70
     0
 62
     7
  6
VERDECKT
370
    -3
390
2786
  0
LAYER
  5
CB
102
{ACAD_XDICTIONARY
360
28DA
102
}
330
2
100
AcDbSymbolTableRecord
100
AcDbLayerTableRecord
  2
AM_TR
 70
     0
 62
     7
  6
CONTINUOUS
370
    -3
390
2786
  0
LAYER
  5
CC
102
{ACAD_XDICTIONARY
360
28DC
102
}
330
2
100
AcDbSymbolTableRecord
100
AcDbLayerTableRecord
  2
AM_BM
 70
     0
 62
     7
  6
CONTINUOUS
370
    -3
390
2786
  0
LAYER
  5
CD
102
{ACAD_XDICTIONARY
360
28DE
102
}
330
2
100
AcDbSymbolTableRecord
100
AcDbLayerTableRecord
  2
AM_BL
 70
     0
 62
     7
  6
CONTINUOUS
370
    -3
390
2786
  0
LAYER
  5
EB
330
2
100
AcDbSymbolTableRecord
100
AcDbLayerTableRecord
  2
DEFPOINTS
 70
     0
 62
     7
  6
CONTINUOUS
290
     0
370
    -3
390
2786
  0
LAYER
  5
85F
102
{ACAD_XDICTIONARY
360
28E0
102
}
330
2
100
AcDbSymbolTableRecord
100
AcDbLayerTableRecord
  2
STANDARDEBENE
 70
     0
 62
     7
  6
DURCHGEHEND
370
    -3
390
2786
  0
LAYER
  5
860
102
{ACAD_XDICTIONARY
360
28E2
102
}
330
2
100
AcDbSymbolTableRecord
100
AcDbLayerTableRecord
  2
EBENE_3
 70
     0
 62
     7
  6
DURCHGEHEND
370
    -3
390
2786
  0
LAYER
  5
27F1
102
{ACAD_XDICTIONARY
360
28E4
102
}
330
2
100
AcDbSymbolTableRecord
100
AcDbLayerTableRecord
  2
PH_HILFSELEMENTE
 70
     0
 62
    -7
  6
CONTINUOUS
370
    -3
390
2786
  0
ENDTAB
  0
TABLE
  2
STYLE
  5
3
330
0
100
AcDbSymbolTable
 70
     2
  0
STYLE
  5
10
330
3
100
AcDbSymbolTableRecord
100
AcDbTextStyleTableRecord
  2
STANDARD
 70
     0
 40
0.0
 41
1.199999999999999
 50
0.0
 71
     0
 42
3.5
  3
ISOCP.shx
  4

  0
ENDTAB
  0
TABLE
  2
VIEW
  5
6
330
0
100
AcDbSymbolTable
 70
     0
  0
ENDTAB
  0
TABLE
  2
UCS
  5
7
330
0
100
AcDbSymbolTable
 70
     0
  0
ENDTAB
  0
TABLE
  2
APPID
  5
9
330
0
100
AcDbSymbolTable
 70
    10
  0
APPID
  5
11
330
9
100
AcDbSymbolTableRecord
100
AcDbRegAppTableRecord
  2
ACAD
 70
     0
  0
APPID
  5
32
330
9
100
AcDbSymbolTableRecord
100
AcDbRegAppTableRecord
  2
PHOENIX7010
 70
     0
  0
APPID
  5
B5
330
9
100
AcDbSymbolTableRecord
100
AcDbRegAppTableRecord
  2
AD_DRAW
 70
     0
  0
APPID
  5
CF
330
9
100
AcDbSymbolTableRecord
100
AcDbRegAppTableRecord
  2
DESIGNERASSEMBLIES
 70
     0
  0
APPID
  5
D1
330
9
100
AcDbSymbolTableRecord
100
AcDbRegAppTableRecord
  2
MCAD_NO_VIS
 70
     0
  0
APPID
  5
D7
330
9
100
AcDbSymbolTableRecord
100
AcDbRegAppTableRecord
  2
ASURF_PCURVE_APPNAME
 70
     0
  0
APPID
  5
28C4
330
9
100
AcDbSymbolTableRecord
100
AcDbRegAppTableRecord
  2
AcadAnnoPO
 70
     0
  0
APPID
  5
28C6
330
9
100
AcDbSymbolTableRecord
100
AcDbRegAppTableRecord
  2
ACAD_EXEMPT_FROM_CAD_STANDARDS
 70
     0
  0
APPID
  5
2936
330
9
100
AcDbSymbolTableRecord
100
AcDbRegAppTableRecord
  2
ACAD_PSEXT
 70
     0
  0
APPID
  5
2974
330
9
100
AcDbSymbolTableRecord
100
AcDbRegAppTableRecord
  2
ACAD_MLEADERVER
 70
     0
  0
ENDTAB
  0
TABLE
  2
DIMSTYLE
  5
A
330
0
100
AcDbSymbolTable
 70
    11
100
AcDbDimStyleTable
 71
     1
340
33
  0
DIMSTYLE
105
1D
330
A
100
AcDbSymbolTableRecord
100
AcDbDimStyleTableRecord
  2
STANDARD
 70
     0
340
10
  0
DIMSTYLE
105
24
330
A
100
AcDbSymbolTableRecord
100
AcDbDimStyleTableRecord
  2
ISO-25
 70
     0
 41
2.5
 42
0.625
 43
3.75
 44
1.25
 74
     0
 77
     1
 78
     8
140
2.5
141
2.5
143
0.0394
145
1.0
147
0.625
172
     1
340
10
  0
DIMSTYLE
105
25
330
A
100
AcDbSymbolTableRecord
100
AcDbDimStyleTableRecord
  2
ISO-35
 70
     0
 41
3.5
 42
0.875
 43
5.25
 44
1.75
 74
     0
 77
     1
 78
     8
140
3.5
141
3.5
143
0.0394
145
1.399999999999999
147
0.875
172
     1
340
10
  0
DIMSTYLE
105
26
330
A
100
AcDbSymbolTableRecord
100
AcDbDimStyleTableRecord
  2
ISO-5
 70
     0
 41
5.0
 42
1.25
 43
7.5
 44
2.5
 74
     0
 77
     1
 78
     8
140
5.0
141
5.0
143
0.0394
145
2.0
147
1.25
172
     1
340
10
  0
DIMSTYLE
105
27
330
A
100
AcDbSymbolTableRecord
100
AcDbDimStyleTableRecord
  2
ISO-7
 70
     0
 41
7.0
 42
1.75
 43
10.5
 44
3.5
 74
     0
 77
     1
 78
     8
140
7.0
141
7.0
143
0.0394
145
2.799999999999999
147
1.75
172
     1
340
10
  0
DIMSTYLE
105
28
330
A
100
AcDbSymbolTableRecord
100
AcDbDimStyleTableRecord
  2
ISO1
 70
     0
 41
10.0
 42
2.5
 43
15.0
 44
5.0
 74
     0
 77
     1
 78
     8
140
10.0
141
10.0
143
0.0394
145
4.0
147
2.5
172
     1
340
10
  0
DIMSTYLE
105
29
330
A
100
AcDbSymbolTableRecord
100
AcDbDimStyleTableRecord
  2
ISO1-4
 70
     0
 41
14.0
 42
3.5
 43
21.0
 44
7.0
 74
     0
 77
     1
 78
     8
140
14.0
141
14.0
143
0.0394
145
5.599999999999999
147
3.5
172
     1
340
10
  0
DIMSTYLE
105
2A
330
A
100
AcDbSymbolTableRecord
100
AcDbDimStyleTableRecord
  2
ISO2
 70
     0
 41
20.0
 42
5.0
 43
30.0
 44
10.0
 74
     0
 77
     1
 78
     8
140
20.0
141
20.0
143
0.0394
145
8.0
147
5.0
172
     1
340
10
  0
DIMSTYLE
105
33
330
A
100
AcDbSymbolTableRecord
100
AcDbDimStyleTableRecord
  2
PHOENIX
 70
     0
  4
"
 41
3.72
 42
0.0
 43
7.0
 44
1.5
 73
     0
 74
     0
 77
     1
 78
     8
140
3.5
141
0.0
143
0.0393700787401575
146
0.6666666666666666
147
2.0
172
     1
173
     1
176
     1
177
     1
178
     5
271
     2
272
     2
284
     8
288
     1
289
     0
340
10
341
35
343
35
344
35
  0
DIMSTYLE
105
34
330
A
100
AcDbSymbolTableRecord
100
AcDbDimStyleTableRecord
  2
PHOENIX$4
 70
     0
  4
"
 41
3.72
 42
0.0
 43
7.0
 44
1.5
 73
     0
 74
     0
 77
     1
 78
     8
140
3.5
141
0.0
143
0.0393700787401575
146
0.6666666666666666
147
2.0
173
     1
176
     1
177
     1
178
     5
271
     2
272
     2
281
     1
284
     8
288
     1
289
     0
340
10
341
35
343
35
344
35
  0
ENDTAB
  0
TABLE
  2
BLOCK_RECORD
  5
1
330
0
100
AcDbSymbolTable
 70
    11
  0
BLOCK_RECORD
  5
1A
330
1
100
AcDbSymbolTableRecord
100
AcDbBlockTableRecord
  2
*MODEL_SPACE
340
27DD
  0
BLOCK_RECORD
  5
17
330
1
100
AcDbSymbolTableRecord
100
AcDbBlockTableRecord
  2
*PAPER_SPACE
340
27DE
  0
BLOCK_RECORD
  5
35
330
1
100
AcDbSymbolTableRecord
100
AcDbBlockTableRecord
  2
_OPEN15
340
0
  0
BLOCK_RECORD
  5
C3
330
1
100
AcDbSymbolTableRecord
100
AcDbBlockTableRecord
  2
*U1
340
0
  0
BLOCK_RECORD
  5
27E1
330
1
100
AcDbSymbolTableRecord
100
AcDbBlockTableRecord
  2
PH_GRPBLK
340
0
102
{BLKREFS
331
27E5
331
2873
331
2876
331
28AE
102
}
  0
ENDTAB
  0
ENDSEC
  0
SECTION
  2
BLOCKS
  0
BLOCK
  5
1B
330
1A
100
AcDbEntity
  8
0
100
AcDbBlockBegin
  2
*MODEL_SPACE
 70
     0
 10
0.0
 20
0.0
 30
0.0
  3
*MODEL_SPACE
  1

  0
ENDBLK
  5
1C
330
1A
100
AcDbEntity
  8
0
100
AcDbBlockEnd
  0
BLOCK
  5
18
330
17
100
AcDbEntity
 67
     1
  8
0
100
AcDbBlockBegin
  2
*PAPER_SPACE
 70
     0
 10
0.0
 20
0.0
 30
0.0
  3
*PAPER_SPACE
  1

  0
ENDBLK
  5
19
330
17
100
AcDbEntity
 67
     1
  8
0
100
AcDbBlockEnd
  0
BLOCK
  5
39
330
35
100
AcDbEntity
  8
0
 62
     7
100
AcDbBlockBegin
  2
_OPEN15
 70
     0
 10
1.0
 20
0.0
 30
0.0
  3
_OPEN15
  1

  0
LINE
  5
36
330
35
100
AcDbEntity
  8
0
  6
ByBlock
 62
     0
100
AcDbLine
 10
0.0
 20
0.0
 30
0.0
 11
1.0
 21
0.0
 31
0.0
  0
LINE
  5
37
330
35
100
AcDbEntity
  8
0
  6
ByBlock
 62
     0
100
AcDbLine
 10
1.0
 20
0.0
 30
0.0
 11
0.0
 21
0.1316524975873958
 31
0.0
  0
LINE
  5
38
330
35
100
AcDbEntity
  8
0
  6
ByBlock
 62
     0
100
AcDbLine
 10
1.0
 20
0.0
 30
0.0
 11
0.0
 21
-0.1316524975873958
 31
0.0
  0
ENDBLK
  5
3A
330
35
100
AcDbEntity
  8
0
 62
     7
100
AcDbBlockEnd
  0
BLOCK
  5
C4
330
C3
100
AcDbEntity
  8
0
 62
     7
100
AcDbBlockBegin
  2
*U1
 70
     1
 10
0.0
 20
0.0
 30
0.0
  3
*U1
  1

  0
ENDBLK
  5
C5
330
C3
100
AcDbEntity
  8
0
 62
     7
100
AcDbBlockEnd
  0
BLOCK
  5
27E2
330
27E1
100
AcDbEntity
  8
0
 62
     7
370
    50
100
AcDbBlockBegin
  2
PH_GRPBLK
 70
     0
 10
0.0
 20
0.0
 30
0.0
  3
PH_GRPBLK
  1

  0
POINT
  5
27E3
330
27E1
100
AcDbEntity
  8
DEFPOINTS
  6
Continuous
 62
     0
370
    50
100
AcDbPoint
 10
0.0
 20
0.0
 30
0.0
  0
ENDBLK
  5
27E4
330
27E1
100
AcDbEntity
  8
0
 62
     7
370
    50
100
AcDbBlockEnd
  0
ENDSEC
  0
SECTION
  2
ENTITIES
  0
TEXT
  5
862
330
1A
100
AcDbEntity
  8
0
100
AcDbText
 10
272.1265969473377
 20
504.7709529155506
 30
0.0
 40
4.233333
  1
 
100
AcDbText
1001
PHOENIX7010
1002
{
1070
    41
1040
1.0
1002
}
  0
TEXT
  5
863
330
1A
100
AcDbEntity
  8
0
100
AcDbText
 10
468.4474209473376
 20
502.0369449155506
 30
0.0
 40
4.233333
  1
 
100
AcDbText
1001
PHOENIX7010
1002
{
1070
    41
1040
1.0
1002
}
  0
LINE
  5
1C53
330
1A
100
AcDbEntity
  8
0
 62
     5
100
AcDbLine
 10
111.3764829613355
 20
272.2190977208036
 30
0.0
 11
111.3764829613355
 21
256.7531037208037
 31
0.0
1001
PHOENIX7010
1002
{
1070
    41
1040
0.5
1002
}
  0
LINE
  5
1C54
330
1A
100
AcDbEntity
  8
0
 62
     5
100
AcDbLine
 10
113.9111669613355
 20
270.7561237208035
 30
0.0
 11
126.0692489613354
 21
277.7755337208037
 31
0.0
1001
PHOENIX7010
1002
{
1070
    41
1040
0.5
1002
}
  0
LINE
  5
1C55
330
1A
100
AcDbEntity
  8
0
 62
     5
100
AcDbLine
 10
113.9111669613355
 20
270.7561237208035
 30
0.0
 11
111.3764829613355
 21
272.2190977208036
 31
0.0
1001
PHOENIX7010
1002
{
1070
    41
1040
0.5
1002
}
  0
LINE
  5
1C56
330
1A
100
AcDbEntity
  8
0
 62
     5
100
AcDbLine
 10
113.9111669613355
 20
255.2900977208037
 30
0.0
 11
111.3764829613355
 21
256.7531037208037
 31
0.0
1001
PHOENIX7010
1002
{
1070
    41
1040
0.5
1002
}
  0
LINE
  5
1C58
330
1A
100
AcDbEntity
  8
0
 62
     5
100
AcDbLine
 10
111.3764829613355
 20
272.2190977208036
 30
0.0
 11
115.0857429613354
 21
274.3606917208037
 31
0.0
1001
PHOENIX7010
1002
{
1070
    41
1040
0.5
1002
}
  0
LINE
  5
1C59
330
1A
100
AcDbEntity
  8
0
 62
     5
100
AcDbLine
 10
123.0898789613354
 20
279.4957017208037
 30
0.0
 11
114.6135749613356
 21
274.6019577208037
 31
0.0
1001
PHOENIX7010
1002
{
1070
    41
1040
0.5
1002
}
  0
LINE
  5
1C5A
330
1A
100
AcDbEntity
  8
0
 62
     5
100
AcDbLine
 10
113.9111669613355
 20
255.2900977208037
 30
0.0
 11
126.0692489613354
 21
262.3095677208037
 31
0.0
1001
PHOENIX7010
1002
{
1070
    41
1040
0.5
1002
}
  0
LINE
  5
1C5B
330
1A
100
AcDbEntity
  8
0
 62
     5
100
AcDbLine
 10
111.3764829613355
 20
256.7531037208037
 30
0.0
 11
112.8143509613355
 21
257.4078797208037
 31
0.0
1001
PHOENIX7010
1002
{
1070
    41
1040
0.5
1002
}
  0
LINE
  5
1C5C
330
1A
100
AcDbEntity
  8
0
 62
     5
100
AcDbLine
 10
126.3385189613354
 20
276.4979837208036
 30
0.0
 11
126.3385189613354
 21
263.9580057208036
 31
0.0
1001
PHOENIX7010
1002
{
1070
    41
1040
0.5
1002
}
  0
LINE
  5
1C5D
330
1A
100
AcDbEntity
  8
0
 62
     5
100
AcDbLine
 10
126.3385189613354
 20
276.4979837208036
 30
0.0
 11
114.0309029613356
 21
269.3920037208036
 31
0.0
1001
PHOENIX7010
1002
{
1070
    41
1040
0.5
1002
}
  0
LINE
  5
1C5E
330
1A
100
AcDbEntity
  8
0
 62
     5
100
AcDbLine
 10
114.0309029613356
 20
269.3920037208036
 30
0.0
 11
116.4639469613355
 21
269.3920037208036
 31
0.0
1001
PHOENIX7010
1002
{
1070
    41
1040
0.5
1002
}
  0
LINE
  5
1C5F
330
1A
100
AcDbEntity
  8
0
 62
     5
100
AcDbLine
 10
114.0309029613356
 20
256.8519957208037
 30
0.0
 11
116.4639469613355
 21
256.8519957208037
 31
0.0
1001
PHOENIX7010
1002
{
1070
    41
1040
0.5
1002
}
  0
LINE
  5
1C60
330
1A
100
AcDbEntity
  8
0
 62
     5
100
AcDbLine
 10
116.4639469613355
 20
269.3920037208036
 30
0.0
 11
116.4639469613355
 21
256.8519957208037
 31
0.0
1001
PHOENIX7010
1002
{
1070
    41
1040
0.5
1002
}
  0
LINE
  5
1C61
330
1A
100
AcDbEntity
  8
0
 62
     5
100
AcDbLine
 10
116.4639469613355
 20
269.3920037208036
 30
0.0
 11
115.2219429613355
 21
270.1091137208036
 31
0.0
1001
PHOENIX7010
1002
{
1070
    41
1040
0.5
1002
}
  0
LINE
  5
1C62
330
1A
100
AcDbEntity
  8
0
 62
     5
100
AcDbLine
 10
116.7278929613355
 20
270.9743177208036
 30
0.0
 11
116.7278929613355
 21
269.9420897208035
 31
0.0
1001
PHOENIX7010
1002
{
1070
    41
1040
0.5
1002
}
  0
LINE
  5
1C64
330
1A
100
AcDbEntity
  8
0
 62
     5
100
AcDbLine
 10
126.3385189613354
 20
263.9580057208036
 30
0.0
 11
133.4980809613355
 21
269.5753457208036
 31
0.0
1001
PHOENIX7010
1002
{
1070
    41
1040
0.5
1002
}
  0
LINE
  5
1C6D
330
1A
100
AcDbEntity
  8
0
 62
     5
100
AcDbLine
 10
126.3385189613354
 20
262.1147437208037
 30
0.0
 11
130.0293309613355
 21
264.2456037208037
 31
0.0
1001
PHOENIX7010
1002
{
1070
    41
1040
0.5
1002
}
  0
LINE
  5
1C6E
330
1A
100
AcDbEntity
  8
0
 62
     5
100
AcDbLine
 10
126.3385189613354
 20
263.9580057208036
 30
0.0
 11
126.3385189613354
 21
262.1147437208037
 31
0.0
1001
PHOENIX7010
1002
{
1070
    41
1040
0.5
1002
}
  0
LINE
  5
1C6F
330
1A
100
AcDbEntity
  8
0
 62
     5
100
AcDbLine
 10
130.0293309613355
 20
266.0888657208036
 30
0.0
 11
130.0293309613355
 21
264.2456037208037
 31
0.0
1001
PHOENIX7010
1002
{
1070
    41
1040
0.5
1002
}
  0
LINE
  5
1C70
330
1A
100
AcDbEntity
  8
0
 62
     5
100
AcDbLine
 10
114.0309029613356
 20
263.1219997208036
 30
0.0
 11
114.0309029613356
 21
256.8519957208037
 31
0.0
1001
PHOENIX7010
1002
{
1070
    41
1040
0.5
1002
}
  0
LINE
  5
1C71
330
1A
100
AcDbEntity
  8
0
 62
     5
100
AcDbLine
 10
114.0309029613356
 20
269.3920037208036
 30
0.0
 11
114.0309029613356
 21
263.1219997208036
 31
0.0
1001
PHOENIX7010
1002
{
1070
    41
1040
0.5
1002
}
  0
LINE
  5
1C78
330
1A
100
AcDbEntity
  8
0
 62
     5
100
AcDbLine
 10
126.3385189613354
 20
263.9580057208036
 30
0.0
 11
117.0195969613355
 21
258.5777557208037
 31
0.0
1001
PHOENIX7010
1002
{
1070
    41
1040
0.5
1002
}
  0
LINE
  5
1C84
330
1A
100
AcDbEntity
  8
0
 62
     5
100
AcDbLine
 10
116.8980149613355
 20
267.4096437208036
 30
0.0
 11
116.8980149613355
 21
262.4296777208037
 31
0.0
1001
PHOENIX7010
1002
{
1070
    41
1040
0.5
1002
}
  0
LINE
  5
1C85
330
1A
100
AcDbEntity
  8
0
 62
     5
100
AcDbLine
 10
119.4130429613355
 20
268.8545277208036
 30
0.0
 11
116.9104189613356
 21
267.4096437208036
 31
0.0
1001
PHOENIX7010
1002
{
1070
    41
1040
0.5
1002
}
  0
LWPOLYLINE
  5
1C86
330
1A
100
AcDbEntity
  8
0
 62
     5
100
AcDbPolyline
 90
       21
 70
     0
 43
0.0
 10
120.2368509613354
 20
262.8031297208035
 10
120.6050609613355
 20
263.0167817208037
 10
120.9779709613356
 20
263.3079817208036
 10
121.3338349613354
 20
263.6629317208037
 10
121.6617469613354
 20
264.0709137208037
 10
121.9517249613354
 20
264.5192457208036
 10
122.1950109613356
 20
264.9945277208037
 10
122.3843869613356
 20
265.4824957208036
 10
122.5138589613354
 20
265.9681597208037
 10
122.5796089613354
 20
266.4367037208037
 10
122.5796089613354
 20
266.8736857208037
 10
122.5138889613356
 20
267.2663317208037
 10
122.3844189613355
 20
267.6024977208038
 10
122.1950409613355
 20
267.8718017208037
 10
121.9517709613356
 20
268.0661757208036
 10
121.6617929613355
 20
268.1796777208037
 10
121.3338809613356
 20
268.2090357208037
 10
120.9780309613354
 20
268.1530897208036
 10
120.6051209613356
 20
268.0136997208037
 10
120.2266729613354
 20
267.7952097208035
 10
120.0573929613356
 20
267.6726737208037
1001
PHOENIX7010
1002
{
1070
    41
1040
0.5
1002
}
  0
LINE
  5
1C9E
330
1A
100
AcDbEntity
  8
0
 62
     5
100
AcDbLine
 10
118.9680209613354
 20
262.0702117208036
 30
0.0
 11
120.4124489613355
 21
262.9041577208036
 31
0.0
1001
PHOENIX7010
1002
{
1070
    41
1040
0.5
1002
}
  0
LINE
  5
1C9F
330
1A
100
AcDbEntity
  8
0
 62
     5
100
AcDbLine
 10
117.5201149613356
 20
262.0705317208037
 30
0.0
 11
116.8980149613355
 21
262.4296777208037
 31
0.0
1001
PHOENIX7010
1002
{
1070
    41
1040
0.5
1002
}
  0
LINE
  5
1CA0
330
1A
100
AcDbEntity
  8
0
 62
     5
100
AcDbLine
 10
117.5232429613354
 20
267.0558517208037
 30
0.0
 11
116.9104189613356
 21
267.4096437208036
 31
0.0
1001
PHOENIX7010
1002
{
1070
    41
1040
0.5
1002
}
  0
LINE
  5
1CA2
330
1A
100
AcDbEntity
  8
0
 62
     5
100
AcDbLine
 10
118.9680209613354
 20
267.0501677208037
 30
0.0
 11
118.9680209613354
 21
262.0702117208036
 31
0.0
1001
PHOENIX7010
1002
{
1070
    41
1040
0.5
1002
}
  0
LINE
  5
1CA3
330
1A
100
AcDbEntity
  8
0
 62
     5
100
AcDbLine
 10
117.5199929613354
 20
267.0501677208037
 30
0.0
 11
117.5199929613354
 21
262.0702117208036
 31
0.0
1001
PHOENIX7010
1002
{
1070
    41
1040
0.5
1002
}
  0
LINE
  5
1CA4
330
1A
100
AcDbEntity
  8
0
 62
     5
100
AcDbLine
 10
117.5199929613354
 20
267.0501677208037
 30
0.0
 11
118.2226449613356
 21
267.4558237208036
 31
0.0
1001
PHOENIX7010
1002
{
1070
    41
1040
0.5
1002
}
  0
LINE
  5
1CA5
330
1A
100
AcDbEntity
  8
0
 62
     5
100
AcDbLine
 10
118.2226449613356
 20
267.4558237208036
 30
0.0
 11
118.9572949613355
 21
267.0316437208037
 31
0.0
1001
PHOENIX7010
1002
{
1070
    41
1040
0.5
1002
}
  0
LINE
  5
1CA6
330
1A
100
AcDbEntity
  8
0
 62
     5
100
AcDbLine
 10
117.5199929613354
 20
262.0702117208036
 30
0.0
 11
118.2226449613356
 21
262.4758577208035
 31
0.0
1001
PHOENIX7010
1002
{
1070
    41
1040
0.5
1002
}
  0
LINE
  5
1CA7
330
1A
100
AcDbEntity
  8
0
 62
     5
100
AcDbLine
 10
118.2226449613356
 20
262.4758577208035
 30
0.0
 11
118.9572949613355
 21
262.0516877208036
 31
0.0
1001
PHOENIX7010
1002
{
1070
    41
1040
0.5
1002
}
  0
LINE
  5
1CA8
330
1A
100
AcDbEntity
  8
0
 62
     5
100
AcDbLine
 10
118.2226449613356
 20
267.4558237208036
 30
0.0
 11
118.2226449613356
 21
262.4758577208035
 31
0.0
1001
PHOENIX7010
1002
{
1070
    41
1040
0.5
1002
}
  0
LWPOLYLINE
  5
1CA9
330
1A
100
AcDbEntity
  8
0
 62
     5
100
AcDbPolyline
 90
       38
 70
     1
 43
0.0
 10
119.3925509613354
 20
263.6336117208036
 10
119.5857429613354
 20
263.5579897208036
 10
119.8042189613354
 20
263.5384337208036
 10
120.0413249613355
 20
263.5757037208037
 10
120.2897689613355
 20
263.6685777208036
 10
120.5419189613355
 20
263.8141457208037
 10
120.7903789613356
 20
264.0081617208036
 10
121.0274689613354
 20
264.2446577208036
 10
121.2459449613354
 20
264.5164777208035
 10
121.4391509613356
 20
264.8151837208036
 10
121.6012449613356
 20
265.1318497208038
 10
121.7274209613356
 20
265.4569677208037
 10
121.8136929613356
 20
265.7805457208037
 10
121.8574869613355
 20
266.0927257208036
 10
121.8574869613355
 20
266.3838697208037
 10
121.8136929613356
 20
266.6454757208037
 10
121.7274369613355
 20
266.8694437208037
 10
121.6012769613355
 20
267.0488717208036
 10
121.4391829613355
 20
267.1783797208036
 10
121.2459909613355
 20
267.2540037208037
 10
121.0275149613355
 20
267.2735577208036
 10
120.7904089613355
 20
267.2362877208036
 10
120.5419649613354
 20
267.1434157208036
 10
120.2898129613356
 20
266.9978457208038
 10
120.0413549613356
 20
266.8038297208036
 10
119.8042649613355
 20
266.5673357208036
 10
119.5857889613355
 20
266.2955137208037
 10
119.3925809613356
 20
265.9968077208036
 10
119.2304869613356
 20
265.6801437208037
 10
119.1043129613356
 20
265.3550237208037
 10
119.0180389613356
 20
265.0314457208037
 10
118.9742469613354
 20
264.7192657208036
 10
118.9742469613354
 20
264.4281217208036
 10
119.0180389613356
 20
264.1665177208035
 10
119.1042969613356
 20
263.9425477208035
 10
119.2304569613354
 20
263.7631197208036
 10
119.3925509613354
 20
263.6336117208036
 10
119.3925509613354
 20
263.6336117208036
1001
PHOENIX7010
1002
{
1070
    41
1040
0.5
1002
}
  0
LWPOLYLINE
  5
1CD1
330
1A
100
AcDbEntity
  8
0
 62
     5
100
AcDbPolyline
 90
       22
 70
     0
 43
0.0
 10
119.6705669613354
 20
264.8739837208036
 10
119.7486449613354
 20
264.8434197208037
 10
119.8369489613355
 20
264.8355157208036
 10
119.9327729613355
 20
264.8505837208036
 10
120.0331769613356
 20
264.8881197208036
 10
120.1350889613354
 20
264.9469497208035
 10
120.2354929613354
 20
265.0253577208037
 10
120.3313169613354
 20
265.1209397208035
 10
120.4196209613355
 20
265.2308017208036
 10
120.4976989613355
 20
265.3515217208037
 10
120.5632209613354
 20
265.4795057208037
 10
120.6142149613356
 20
265.6108977208037
 10
120.6490669613356
 20
265.7416737208036
 10
120.6667829613354
 20
265.8678417208037
 10
120.6667829613354
 20
265.9855097208035
 10
120.6490829613356
 20
266.0912377208035
 10
120.6142149613356
 20
266.1817597208037
 10
120.5632209613354
 20
266.2542697208037
 10
120.4977149613355
 20
266.3066157208036
 10
120.4196349613355
 20
266.3371797208035
 10
120.3313329613354
 20
266.3450837208036
 10
120.3299449613355
 20
266.3450217208037
1001
PHOENIX7010
1002
{
1070
    41
1040
0.5
1002
}
  0
LWPOLYLINE
  5
1CE9
330
1A
100
AcDbEntity
  8
0
 62
     5
100
AcDbPolyline
 90
        7
 70
     0
 43
0.0
 10
119.4992709613355
 20
265.2526297208037
 10
119.5014989613355
 20
265.1950897208037
 10
119.5191989613356
 20
265.0893617208037
 10
119.5540649613356
 20
264.9988377208035
 10
119.6050609613355
 20
264.9263277208036
 10
119.6705669613354
 20
264.8739837208036
 10
119.6705669613354
 20
264.8739837208036
1001
PHOENIX7010
1002
{
1070
    41
1040
0.5
1002
}
  0
LINE
  5
1CF4
330
1A
100
AcDbEntity
  8
0
 62
     5
100
AcDbLine
 10
145.0033149613355
 20
248.0325437208037
 30
0.0
 11
171.7304109613355
 21
232.6015977208037
 31
0.0
1001
PHOENIX7010
1002
{
1070
    41
1040
0.5
1002
}
  0
LINE
  5
1CF5
330
1A
100
AcDbEntity
  8
0
 62
     5
100
AcDbLine
 10
135.9421429613355
 20
255.6285457208037
 30
0.0
 11
134.4991649613355
 21
254.7954077208037
 31
0.0
1001
PHOENIX7010
1002
{
1070
    41
1040
0.5
1002
}
  0
LINE
  5
1CF6
330
1A
100
AcDbEntity
  8
0
 62
     5
100
AcDbLine
 10
137.3852269613355
 20
256.4616837208037
 30
0.0
 11
135.9421429613355
 21
255.6285457208037
 31
0.0
1001
PHOENIX7010
1002
{
1070
    41
1040
0.5
1002
}
  0
LWPOLYLINE
  5
1CF7
330
1A
100
AcDbEntity
  8
0
 62
     5
100
AcDbPolyline
 90
       21
 70
     0
 43
0.0
 10
146.0271949613354
 20
251.4779497208037
 10
145.4156369613356
 20
251.4979457208037
 10
144.7975509613354
 20
251.5465297208036
 10
144.1746249613354
 20
251.6214957208037
 10
143.5485729613356
 20
251.7206477208035
 10
142.9211149613354
 20
251.8417717208038
 10
142.2939189613355
 20
251.9826637208037
 10
141.6687349613355
 20
252.1411117208036
 10
141.0472449613355
 20
252.3149237208035
 10
140.4311709613355
 20
252.5018817208036
 10
139.8221929613355
 20
252.6997817208037
 10
139.2220489613355
 20
252.9064237208036
 10
138.6324189613356
 20
253.1195957208035
 10
138.0550429613356
 20
253.3370957208037
 10
137.4915809613355
 20
253.5567137208036
 10
136.9437749613355
 20
253.7762437208037
 10
136.4133329613355
 20
253.9934817208036
 10
135.9019349613356
 20
254.2062277208036
 10
135.4113049613354
 20
254.4122677208036
 10
134.9431489613355
 20
254.6093957208036
 10
134.4991789613354
 20
254.7954077208037
1001
PHOENIX7010
1002
{
1070
    41
1040
0.5
1002
}
  0
LWPOLYLINE
  5
1D0E
330
1A
100
AcDbEntity
  8
0
 62
     5
100
AcDbPolyline
 90
       21
 70
     0
 43
0.0
 10
146.0271949613354
 20
251.4779497208037
 10
146.1236609613354
 20
251.5095577208037
 10
146.2083469613356
 20
251.5397857208036
 10
146.2816049613354
 20
251.5688217208037
 10
146.3438449613354
 20
251.5968757208036
 10
146.3954509613356
 20
251.6241437208037
 10
146.4368169613356
 20
251.6508077208036
 10
146.4683269613356
 20
251.6770757208037
 10
146.4903609613354
 20
251.7031377208036
 10
146.5033149613355
 20
251.7291917208035
 10
146.5075729613356
 20
251.7554457208037
 10
146.5035289613356
 20
251.7820797208037
 10
146.4915809613355
 20
251.8092937208037
 10
146.4720949613354
 20
251.8372857208037
 10
146.4454529613356
 20
251.8662537208036
 10
146.4120829613355
 20
251.8963977208036
 10
146.3723329613356
 20
251.9279077208036
 10
146.3266189613355
 20
251.9609817208036
 10
146.2753029613354
 20
251.9958177208037
 10
146.2187989613355
 20
252.0326057208038
 10
146.1574749613355
 20
252.0715537208037
1001
PHOENIX7010
1002
{
1070
    41
1040
0.5
1002
}
  0
LWPOLYLINE
  5
1D25
330
1A
100
AcDbEntity
  8
0
 62
     5
100
AcDbPolyline
 90
       21
 70
     0
 43
0.0
 10
146.1574749613355
 20
252.0715537208037
 10
145.7246749613355
 20
252.3158537208037
 10
145.2915689613355
 20
252.5546537208036
 10
144.8581129613355
 20
252.7884197208036
 10
144.4242429613355
 20
253.0176517208035
 10
143.9899169613354
 20
253.2428177208037
 10
143.5550869613355
 20
253.4644137208036
 10
143.1196929613354
 20
253.6829197208037
 10
142.6836729613355
 20
253.8988097208037
 10
142.2470129613355
 20
254.1125697208035
 10
141.8096349613356
 20
254.3246897208037
 10
141.3714789613354
 20
254.5356497208036
 10
140.9325149613355
 20
254.7459237208036
 10
140.4926949613354
 20
254.9560057208037
 10
140.0519449613355
 20
255.1663797208036
 10
139.6102169613355
 20
255.3775157208036
 10
139.1674849613355
 20
255.5899097208037
 10
138.7236669613355
 20
255.8040357208035
 10
138.2787209613354
 20
256.0203837208037
 10
137.8326149613356
 20
256.2394377208036
 10
137.3852729613354
 20
256.4616677208037
1001
PHOENIX7010
1002
{
1070
    41
1040
0.5
1002
}
  0
LWPOLYLINE
  5
1D3C
330
1A
100
AcDbEntity
  8
0
 62
     5
100
AcDbPolyline
 90
       21
 70
     0
 43
0.0
 10
145.0033149613355
 20
248.0325437208037
 10
144.2348069613356
 20
248.4922617208038
 10
143.4958689613356
 20
248.9389777208037
 10
142.7858609613356
 20
249.3727397208036
 10
142.1040989613354
 20
249.7935697208036
 10
141.4499389613354
 20
250.2014977208037
 10
140.8227109613356
 20
250.5965637208037
 10
140.2217589613355
 20
250.9787957208037
 10
139.6464269613354
 20
251.3482417208036
 10
139.0960269613356
 20
251.7049157208037
 10
138.5699189613356
 20
252.0488557208036
 10
138.0674469613354
 20
252.3801017208036
 10
137.5879409613355
 20
252.6986817208037
 10
137.1307249613355
 20
253.0046357208036
 10
136.6951629613356
 20
253.2979857208036
 10
136.2805829613355
 20
253.5787717208036
 10
135.8863109613355
 20
253.8470277208037
 10
135.5116909613355
 20
254.1027817208037
 10
135.1560849613356
 20
254.3460737208036
 10
134.8188049613354
 20
254.5769257208037
 10
134.4991949613354
 20
254.7953857208035
1001
PHOENIX7010
1002
{
1070
    41
1040
0.5
1002
}
  0
LINE
  5
1D53
330
1A
100
AcDbEntity
  8
0
 62
     5
100
AcDbLine
 10
146.1574749613355
 20
252.0715537208037
 30
0.0
 11
176.0100589613355
 21
234.8593697208037
 31
0.0
1001
PHOENIX7010
1002
{
1070
    41
1040
0.5
1002
}
  0
LWPOLYLINE
  5
1D54
330
1A
100
AcDbEntity
  8
0
 62
     5
100
AcDbPolyline
 90
       21
 70
     0
 43
0.0
 10
156.9494767133951
 20
185.9488043932126
 10
156.046156713395
 20
187.4678083932126
 10
155.1828747133952
 20
188.7687003932126
 10
154.3580447133952
 20
189.8739443932127
 10
153.5700507133952
 20
190.8060003932126
 10
152.817304713395
 20
191.5873343932126
 10
152.0981587133951
 20
192.2404103932126
 10
151.411054713395
 20
192.7876903932126
 10
150.7543467133953
 20
193.2516403932127
 10
150.1264167133952
 20
193.6547243932127
 10
149.5257087133952
 20
194.0194063932126
 10
148.9505747133951
 20
194.3681463932128
 10
148.3993967133951
 20
194.7234083932126
 10
147.8705887133951
 20
195.1076623932126
 10
147.3625327133952
 20
195.5433663932126
 10
146.8736407133951
 20
196.0529863932127
 10
146.4022967133951
 20
196.6589863932127
 10
145.9468527133951
 20
197.3838243932127
 10
145.5057507133951
 20
198.2499743932126
 10
145.0773447133951
 20
199.2798923932127
 10
144.6600467133951
 20
200.4960443932128
1001
PHOENIX7010
1002
{
1070
    41
1040
0.5
1002
}
  0
LWPOLYLINE
  5
1D6B
330
1A
100
AcDbEntity
  8
0
 62
     5
100
AcDbPolyline
 90
       21
 70
     0
 43
0.0
 10
144.6600167133952
 20
200.4960303932128
 10
144.312360713395
 20
200.8752523932126
 10
143.991376713395
 20
201.2321903932127
 10
143.6954487133951
 20
201.5691883932127
 10
143.4231087133951
 20
201.8885843932126
 10
143.1727127133951
 20
202.1927303932127
 10
142.9427627133953
 20
202.4839683932128
 10
142.7317027133952
 20
202.7646383932126
 10
142.537946713395
 20
203.0370903932128
 10
142.3599387133952
 20
203.3036663932128
 10
142.1961507133951
 20
203.5667083932126
 10
142.0450267133951
 20
203.8285603932127
 10
141.9050127133951
 20
204.0915683932126
 10
141.774548713395
 20
204.3580783932128
 10
141.652052713395
 20
204.6304323932127
 10
141.5359927133952
 20
204.9109763932126
 10
141.4248487133952
 20
205.2020503932126
 10
141.3169987133951
 20
205.5060003932126
 10
141.210950713395
 20
205.8251763932126
 10
141.1050847133951
 20
206.1619163932128
 10
140.9979087133952
 20
206.5185583932128
1001
PHOENIX7010
1002
{
1070
    41
1040
0.5
1002
}
  0
LWPOLYLINE
  5
1D82
330
1A
100
AcDbEntity
  8
0
 62
     5
100
AcDbPolyline
 90
       21
 70
     0
 43
0.0
 10
140.9979087133952
 20
206.5185583932128
 10
140.9392827133952
 20
206.6167343932127
 10
140.8970467133952
 20
206.7381943932125
 10
140.8686967133951
 20
206.8812443932127
 10
140.8518207133952
 20
207.0442023932126
 10
140.8439167133952
 20
207.2253623932127
 10
140.8425727133951
 20
207.4230383932126
 10
140.8452887133951
 20
207.6355483932127
 10
140.8496227133951
 20
207.8611883932126
 10
140.8531327133951
 20
208.0982863932127
 10
140.8533467133952
 20
208.3451343932127
 10
140.8477927133951
 20
208.6000563932127
 10
140.8340287133951
 20
208.8613563932126
 10
140.8096147133951
 20
209.1273323932126
 10
140.7720467133952
 20
209.3963123932126
 10
140.718884713395
 20
209.6665923932126
 10
140.647718713395
 20
209.9364903932126
 10
140.5560127133951
 20
210.2043203932126
 10
140.4413587133952
 20
210.4683723932126
 10
140.301282713395
 20
210.7269703932127
 10
140.133314713395
 20
210.9784283932127
1001
PHOENIX7010
1002
{
1070
    41
1040
0.5
1002
}
  0
LWPOLYLINE
  5
1D99
330
1A
100
AcDbEntity
  8
0
 62
     5
100
AcDbPolyline
 90
       21
 70
     0
 43
0.0
 10
140.133314713395
 20
210.9784363932126
 10
139.9874087133951
 20
211.1615103932126
 10
139.8262767133951
 20
211.3372763932127
 10
139.6515027133951
 20
211.5050703932127
 10
139.464642713395
 20
211.6641963932127
 10
139.267224713395
 20
211.8139763932127
 10
139.060834713395
 20
211.9537163932128
 10
138.8470287133952
 20
212.0827523932128
 10
138.6273327133951
 20
212.2003823932128
 10
138.403302713395
 20
212.3059283932128
 10
138.1764967133952
 20
212.3987163932127
 10
137.9485007133951
 20
212.4780543932127
 10
137.7208387133951
 20
212.5432563932127
 10
137.4950687133951
 20
212.5936403932126
 10
137.272748713395
 20
212.6285283932127
 10
137.0554327133952
 20
212.6472363932128
 10
136.8447087133952
 20
212.6490823932126
 10
136.6420427133951
 20
212.6333743932128
 10
136.4490787133952
 20
212.5994303932127
 10
136.2673467133952
 20
212.5465823932127
 10
136.0983707133951
 20
212.4741263932126
1001
PHOENIX7010
1002
{
1070
    41
1040
0.5
1002
}
  0
LWPOLYLINE
  5
1DB0
330
1A
100
AcDbEntity
  8
0
 62
     5
100
AcDbPolyline
 90
       21
 70
     0
 43
0.0
 10
136.0983707133951
 20
212.4741483932128
 10
135.6234867133951
 20
212.1805163932127
 10
135.097578713395
 20
211.7531243932126
 10
134.5413347133951
 20
211.1965443932127
 10
133.975354713395
 20
210.5153323932127
 10
133.4203007133951
 20
209.7140243932126
 10
132.8967727133952
 20
208.7971843932128
 10
132.4254587133951
 20
207.7693683932127
 10
132.0269307133951
 20
206.6351283932127
 10
131.7218767133952
 20
205.3990263932126
 10
131.5308967133951
 20
204.0656023932127
 10
131.474652713395
 20
202.6394203932127
 10
131.5737747133951
 20
201.1250303932127
 10
131.8488907133951
 20
199.5269903932126
 10
132.3206307133953
 20
197.8498503932126
 10
133.0096267133951
 20
196.0981683932127
 10
133.9365667133952
 20
194.2764943932127
 10
135.1220227133951
 20
192.3893863932126
 10
136.5866527133951
 20
190.4413983932127
 10
138.3511187133952
 20
188.4370803932126
 10
140.436018713395
 20
186.3809943932126
1001
PHOENIX7010
1002
{
1070
    41
1040
0.5
1002
}
  0
LWPOLYLINE
  5
1DC7
330
1A
100
AcDbEntity
  8
0
 62
     5
100
AcDbPolyline
 90
       21
 70
     0
 43
0.0
 10
140.4359267133952
 20
186.3809783932127
 10
140.7423527133951
 20
186.0911443932127
 10
140.9988847133952
 20
185.8341823932126
 10
141.2099447133953
 20
185.6065263932125
 10
141.3799267133952
 20
185.4045983932126
 10
141.5132267133951
 20
185.2248343932126
 10
141.6143027133951
 20
185.0636563932125
 10
141.6874827133952
 20
184.9175003932128
 10
141.7372267133951
 20
184.7827883932127
 10
141.7679267133951
 20
184.6559563932126
 10
141.783978713395
 20
184.5334283932127
 10
141.7898087133951
 20
184.4116363932126
 10
141.7897787133952
 20
184.2870063932128
 10
141.7883127133952
 20
184.1559723932127
 10
141.7898387133952
 20
184.0149583932127
 10
141.7987187133951
 20
183.8603983932125
 10
141.819380713395
 20
183.6887183932126
 10
141.8562447133952
 20
183.4963463932126
 10
141.9137107133952
 20
183.2797123932128
 10
141.9961367133951
 20
183.0352483932126
 10
142.1079847133951
 20
182.7593803932127
1001
PHOENIX7010
1002
{
1070
    41
1040
0.5
1002
}
  0
LWPOLYLINE
  5
1DDE
330
1A
100
AcDbEntity
  8
0
 62
     5
100
AcDbPolyline
 90
       21
 70
     0
 43
0.0
 10
166.8561847133951
 20
182.6038023932126
 10
166.4232307133952
 20
183.0663643932128
 10
165.981398713395
 20
183.5366603932127
 10
165.5314767133952
 20
184.0152323932127
 10
165.0742927133951
 20
184.5026363932127
 10
164.6106387133952
 20
184.9994163932126
 10
164.1413107133951
 20
185.5061223932127
 10
163.6670967133952
 20
186.0233083932125
 10
163.1888247133952
 20
186.5515183932127
 10
162.707258713395
 20
187.0913023932125
 10
162.2232487133951
 20
187.6432083932127
 10
161.7375627133951
 20
188.2077863932127
 10
161.2509907133951
 20
188.7855883932127
 10
160.7643267133951
 20
189.3771563932127
 10
160.2784247133952
 20
189.9830483932126
 10
159.7940507133951
 20
190.6038063932126
 10
159.3119947133953
 20
191.2399823932125
 10
158.8330527133951
 20
191.8921243932127
 10
158.3580447133952
 20
192.5607843932128
 10
157.8878007133951
 20
193.2465063932127
 10
157.4230487133952
 20
193.9498403932127
1001
PHOENIX7010
1002
{
1070
    41
1040
0.5
1002
}
  0
LWPOLYLINE
  5
1DF5
330
1A
100
AcDbEntity
  8
0
 62
     5
100
AcDbPolyline
 90
       21
 70
     0
 43
0.0
 10
157.4229867133952
 20
193.9498403932127
 10
157.0388007133951
 20
194.5258683932127
 10
156.649518713395
 20
195.0499763932127
 10
156.2525167133951
 20
195.5242703932126
 10
155.8451987133951
 20
195.9508403932127
 10
155.4250327133952
 20
196.3317883932127
 10
154.9893627133951
 20
196.6692023932125
 10
154.5356267133952
 20
196.9651843932126
 10
154.0612307133951
 20
197.2218243932127
 10
153.5635807133951
 20
197.4412283932126
 10
153.0401127133953
 20
197.6254843932126
 10
152.4881727133952
 20
197.7766923932126
 10
151.9052567133951
 20
197.8969423932126
 10
151.288678713395
 20
197.9883383932126
 10
150.6359087133951
 20
198.0529743932127
 10
149.9443487133951
 20
198.0929423932127
 10
149.2114087133952
 20
198.1103443932127
 10
148.4344927133952
 20
198.1072703932127
 10
147.6109747133951
 20
198.0858203932127
 10
146.738324713395
 20
198.0480883932127
 10
145.8139167133952
 20
197.9961743932126
1001
PHOENIX7010
1002
{
1070
    41
1040
0.5
1002
}
  0
LWPOLYLINE
  5
1E0C
330
1A
100
AcDbEntity
  8
0
 62
     5
100
AcDbPolyline
 90
       21
 70
     0
 43
0.0
 10
143.5624527133952
 20
200.4000663932127
 10
143.4556107133951
 20
200.1084903932126
 10
143.3641487133952
 20
199.8488923932127
 10
143.2851087133951
 20
199.6185763932126
 10
143.2153767133952
 20
199.4148443932126
 10
143.1519307133951
 20
199.2349983932126
 10
143.0917187133952
 20
199.0763323932126
 10
143.0317207133951
 20
198.9361583932127
 10
142.968884713395
 20
198.8117723932127
 10
142.9001607133953
 20
198.7004743932127
 10
142.8225227133951
 20
198.5995723932126
 10
142.7328927133951
 20
198.5063603932126
 10
142.6282487133951
 20
198.4181443932127
 10
142.5055667133952
 20
198.3322263932127
 10
142.3617387133952
 20
198.2459043932126
 10
142.1938007133951
 20
198.1564823932126
 10
141.9986707133951
 20
198.0612603932127
 10
141.7732987133952
 20
197.9575423932126
 10
141.5146627133952
 20
197.8426283932126
 10
141.2197087133952
 20
197.7138183932127
 10
140.8853887133953
 20
197.5684163932126
1001
PHOENIX7010
1002
{
1070
    41
1040
0.5
1002
}
  0
LWPOLYLINE
  5
1E23
330
1A
100
AcDbEntity
  8
0
 62
     5
100
AcDbPolyline
 90
       21
 70
     0
 43
0.0
 10
142.0925127133951
 20
202.1868483932126
 10
141.8722367133953
 20
201.9546123932128
 10
141.6540967133951
 20
201.7503663932127
 10
141.4390087133952
 20
201.5700263932126
 10
141.2277347133952
 20
201.4095043932127
 10
141.0212227133952
 20
201.2647223932126
 10
140.8202347133951
 20
201.1315843932127
 10
140.6256247133951
 20
201.0060123932126
 10
140.4383067133951
 20
200.8839223932127
 10
140.2590467133952
 20
200.7612263932126
 10
140.0887287133951
 20
200.6338423932127
 10
139.9282047133952
 20
200.4976803932127
 10
139.7783027133951
 20
200.3486643932126
 10
139.639906713395
 20
200.1826983932126
 10
139.5138067133951
 20
199.9957043932127
 10
139.4008927133952
 20
199.7835963932127
 10
139.3019847133951
 20
199.5422903932126
 10
139.2179387133951
 20
199.2676963932126
 10
139.1496107133951
 20
198.9557343932126
 10
139.0978227133951
 20
198.6023223932127
 10
139.0634587133952
 20
198.2033663932127
1001
PHOENIX7010
1002
{
1070
    41
1040
0.5
1002
}
  0
LWPOLYLINE
  5
1E3A
330
1A
100
AcDbEntity
  8
0
 62
     5
100
AcDbPolyline
 90
       21
 70
     0
 43
0.0
 10
140.9033347133952
 20
206.6253623932127
 10
140.8160227133951
 20
206.1617863932127
 10
140.6980107133952
 20
205.7211043932127
 10
140.5521367133951
 20
205.3036083932127
 10
140.381238713395
 20
204.9095803932128
 10
140.1882147133951
 20
204.5393103932127
 10
139.975904713395
 20
204.1930883932127
 10
139.7472067133951
 20
203.8712043932126
 10
139.5049567133951
 20
203.5739363932127
 10
139.2520267133952
 20
203.3015863932126
 10
138.9912847133951
 20
203.0544283932127
 10
138.7255687133952
 20
202.8327603932128
 10
138.4577767133951
 20
202.6368683932126
 10
138.1907487133951
 20
202.4670343932128
 10
137.9273507133951
 20
202.3235523932126
 10
137.6704547133952
 20
202.2067123932127
 10
137.4229267133951
 20
202.1167923932128
 10
137.187634713395
 20
202.0540883932126
 10
136.9674207133951
 20
202.0188903932126
 10
136.7651507133951
 20
202.0114783932127
 10
136.5836927133953
 20
202.0321463932128
1001
PHOENIX7010
1002
{
1070
    41
1040
0.5
1002
}
  0
LWPOLYLINE
  5
1E51
330
1A
100
AcDbEntity
  8
0
 62
     5
100
AcDbPolyline
 90
       21
 70
     0
 43
0.0
 10
136.5836927133953
 20
202.0321463932128
 10
136.3329287133951
 20
202.1411903932126
 10
136.0879347133952
 20
202.3576783932126
 10
135.8545967133952
 20
202.6701543932126
 10
135.6387767133951
 20
203.0671703932126
 10
135.4463627133952
 20
203.5372663932126
 10
135.2833087133952
 20
204.0689903932127
 10
135.1554707133953
 20
204.6508823932127
 10
135.0687387133951
 20
205.2714963932126
 10
135.0290047133951
 20
205.9193763932126
 10
135.042188713395
 20
206.5830663932127
 10
135.1141487133952
 20
207.2511023932127
 10
135.2508067133951
 20
207.9120523932127
 10
135.4580527133951
 20
208.5544403932126
 10
135.7417727133952
 20
209.1668203932127
 10
136.1078627133952
 20
209.7377443932125
 10
136.5622387133951
 20
210.2557483932126
 10
137.1107307133952
 20
210.7093863932127
 10
137.7592907133951
 20
211.0871923932127
 10
138.5138067133951
 20
211.3777283932127
 10
139.380170713395
 20
211.5695243932127
1001
PHOENIX7010
1002
{
1070
    41
1040
0.5
1002
}
  0
LINE
  5
1E68
330
1A
100
AcDbEntity
  8
0
 62
     5
100
AcDbLine
 10
110.6845387133951
 20
222.7584883932127
 30
0.0
 11
110.6845387133951
 21
207.2924923932126
 31
0.0
1001
PHOENIX7010
1002
{
1070
    41
1040
0.5
1002
}
  0
LINE
  5
1E69
330
1A
100
AcDbEntity
  8
0
 62
     5
100
AcDbLine
 10
113.2192827133951
 20
221.2955143932127
 30
0.0
 11
125.3772727133951
 21
228.3149223932126
 31
0.0
1001
PHOENIX7010
1002
{
1070
    41
1040
0.5
1002
}
  0
LINE
  5
1E6A
330
1A
100
AcDbEntity
  8
0
 62
     5
100
AcDbLine
 10
113.2192827133951
 20
221.2955143932127
 30
0.0
 11
110.6845387133951
 21
222.7584883932127
 31
0.0
1001
PHOENIX7010
1002
{
1070
    41
1040
0.5
1002
}
  0
LINE
  5
1E6B
330
1A
100
AcDbEntity
  8
0
 62
     5
100
AcDbLine
 10
113.2192827133951
 20
205.8294803932126
 30
0.0
 11
110.6845387133951
 21
207.2924923932126
 31
0.0
1001
PHOENIX7010
1002
{
1070
    41
1040
0.5
1002
}
  0
LINE
  5
1E6C
330
1A
100
AcDbEntity
  8
0
 62
     5
100
AcDbLine
 10
125.3772727133951
 20
228.3149223932126
 30
0.0
 11
122.3980547133951
 21
230.0350623932127
 31
0.0
1001
PHOENIX7010
1002
{
1070
    41
1040
0.5
1002
}
  0
LINE
  5
1E6D
330
1A
100
AcDbEntity
  8
0
 62
     5
100
AcDbLine
 10
110.6845387133951
 20
222.7584883932127
 30
0.0
 11
114.3939047133951
 21
224.9000523932127
 31
0.0
1001
PHOENIX7010
1002
{
1070
    41
1040
0.5
1002
}
  0
LINE
  5
1E6E
330
1A
100
AcDbEntity
  8
0
 62
     5
100
AcDbLine
 10
122.3980547133951
 20
230.0350623932127
 30
0.0
 11
113.9217507133951
 21
225.1413163932127
 31
0.0
1001
PHOENIX7010
1002
{
1070
    41
1040
0.5
1002
}
  0
LINE
  5
1E6F
330
1A
100
AcDbEntity
  8
0
 62
     5
100
AcDbLine
 10
113.2192827133951
 20
205.8294803932126
 30
0.0
 11
125.3772727133951
 21
212.8489263932126
 31
0.0
1001
PHOENIX7010
1002
{
1070
    41
1040
0.5
1002
}
  0
LINE
  5
1E70
330
1A
100
AcDbEntity
  8
0
 62
     5
100
AcDbLine
 10
110.6845387133951
 20
207.2924923932126
 30
0.0
 11
112.1224647133951
 21
207.9472703932126
 31
0.0
1001
PHOENIX7010
1002
{
1070
    41
1040
0.5
1002
}
  0
LINE
  5
1E71
330
1A
100
AcDbEntity
  8
0
 62
     5
100
AcDbLine
 10
125.646742713395
 20
227.0373723932128
 30
0.0
 11
125.646742713395
 21
214.4973643932126
 31
0.0
1001
PHOENIX7010
1002
{
1070
    41
1040
0.5
1002
}
  0
LINE
  5
1E72
330
1A
100
AcDbEntity
  8
0
 62
     5
100
AcDbLine
 10
125.646742713395
 20
227.0373723932128
 30
0.0
 11
113.3390187133952
 21
219.9313923932127
 31
0.0
1001
PHOENIX7010
1002
{
1070
    41
1040
0.5
1002
}
  0
LINE
  5
1E73
330
1A
100
AcDbEntity
  8
0
 62
     5
100
AcDbLine
 10
113.3390187133952
 20
219.9313923932127
 30
0.0
 11
115.7721087133952
 21
219.9313923932127
 31
0.0
1001
PHOENIX7010
1002
{
1070
    41
1040
0.5
1002
}
  0
LINE
  5
1E74
330
1A
100
AcDbEntity
  8
0
 62
     5
100
AcDbLine
 10
113.3390187133952
 20
207.3913843932128
 30
0.0
 11
115.7721087133952
 21
207.3913843932128
 31
0.0
1001
PHOENIX7010
1002
{
1070
    41
1040
0.5
1002
}
  0
LINE
  5
1E75
330
1A
100
AcDbEntity
  8
0
 62
     5
100
AcDbLine
 10
115.7721087133952
 20
219.9313923932127
 30
0.0
 11
115.7721087133952
 21
207.3913843932128
 31
0.0
1001
PHOENIX7010
1002
{
1070
    41
1040
0.5
1002
}
  0
LINE
  5
1E76
330
1A
100
AcDbEntity
  8
0
 62
     5
100
AcDbLine
 10
115.7721087133952
 20
219.9313923932127
 30
0.0
 11
114.5299967133951
 21
220.6484723932126
 31
0.0
1001
PHOENIX7010
1002
{
1070
    41
1040
0.5
1002
}
  0
LINE
  5
1E77
330
1A
100
AcDbEntity
  8
0
 62
     5
100
AcDbLine
 10
116.036054713395
 20
221.5136763932126
 30
0.0
 11
116.036054713395
 21
220.4814583932127
 31
0.0
1001
PHOENIX7010
1002
{
1070
    41
1040
0.5
1002
}
  0
LINE
  5
1E78
330
1A
100
AcDbEntity
  8
0
 62
     5
100
AcDbLine
 10
125.646742713395
 20
227.0373723932128
 30
0.0
 11
134.2606327133951
 21
233.7957423932128
 31
0.0
1001
PHOENIX7010
1002
{
1070
    41
1040
0.5
1002
}
  0
LINE
  5
1E79
330
1A
100
AcDbEntity
  8
0
 62
     5
100
AcDbLine
 10
125.646742713395
 20
214.4973643932126
 30
0.0
 11
132.8062267133953
 21
220.1147123932126
 31
0.0
1001
PHOENIX7010
1002
{
1070
    41
1040
0.5
1002
}
  0
LINE
  5
1E7A
330
1A
100
AcDbEntity
  8
0
 62
     5
100
AcDbLine
 10
136.4853647133952
 20
219.9712563932128
 30
0.0
 11
134.2974067133952
 21
218.7080043932126
 31
0.0
1001
PHOENIX7010
1002
{
1070
    41
1040
0.5
1002
}
  0
LINE
  5
1E7B
330
1A
100
AcDbEntity
  8
0
 62
     5
100
AcDbLine
 10
134.2974067133952
 20
218.7080043932126
 30
0.0
 11
132.7300547133952
 21
220.1865503932126
 31
0.0
1001
PHOENIX7010
1002
{
1070
    41
1040
0.5
1002
}
  0
LINE
  5
1E7C
330
1A
100
AcDbEntity
  8
0
 62
     5
100
AcDbLine
 10
134.2606327133951
 20
233.7957423932128
 30
0.0
 11
136.4853647133952
 21
232.5112423932126
 31
0.0
1001
PHOENIX7010
1002
{
1070
    41
1040
0.5
1002
}
  0
LINE
  5
1E7D
330
1A
100
AcDbEntity
  8
0
 62
     5
100
AcDbLine
 10
136.4853647133952
 20
232.5112423932126
 30
0.0
 11
134.2974067133952
 21
231.2480123932128
 31
0.0
1001
PHOENIX7010
1002
{
1070
    41
1040
0.5
1002
}
  0
LINE
  5
1E7E
330
1A
100
AcDbEntity
  8
0
 62
     5
100
AcDbLine
 10
134.2974067133952
 20
231.2480123932128
 30
0.0
 11
132.7300547133952
 21
232.7265283932127
 31
0.0
1001
PHOENIX7010
1002
{
1070
    41
1040
0.5
1002
}
  0
LINE
  5
1E7F
330
1A
100
AcDbEntity
  8
0
 62
     5
100
AcDbLine
 10
134.2974067133952
 20
231.2480123932128
 30
0.0
 11
134.2974067133952
 21
218.7080043932126
 31
0.0
1001
PHOENIX7010
1002
{
1070
    41
1040
0.5
1002
}
  0
LINE
  5
1E80
330
1A
100
AcDbEntity
  8
0
 62
     5
100
AcDbLine
 10
136.4853647133952
 20
232.5112423932126
 30
0.0
 11
136.4853647133952
 21
219.9712563932128
 31
0.0
1001
PHOENIX7010
1002
{
1070
    41
1040
0.5
1002
}
  0
LINE
  5
1E81
330
1A
100
AcDbEntity
  8
0
 62
     5
100
AcDbLine
 10
132.7300547133952
 20
232.7265283932127
 30
0.0
 11
132.7300547133952
 21
220.1865503932126
 31
0.0
1001
PHOENIX7010
1002
{
1070
    41
1040
0.5
1002
}
  0
LINE
  5
1E82
330
1A
100
AcDbEntity
  8
0
 62
     5
100
AcDbLine
 10
125.646742713395
 20
212.6541023932127
 30
0.0
 11
129.3375067133952
 21
214.7849623932127
 31
0.0
1001
PHOENIX7010
1002
{
1070
    41
1040
0.5
1002
}
  0
LINE
  5
1E83
330
1A
100
AcDbEntity
  8
0
 62
     5
100
AcDbLine
 10
125.646742713395
 20
214.4973643932126
 30
0.0
 11
125.646742713395
 21
212.6541023932127
 31
0.0
1001
PHOENIX7010
1002
{
1070
    41
1040
0.5
1002
}
  0
LINE
  5
1E84
330
1A
100
AcDbEntity
  8
0
 62
     5
100
AcDbLine
 10
129.3375067133952
 20
216.6282543932127
 30
0.0
 11
129.3375067133952
 21
214.7849623932127
 31
0.0
1001
PHOENIX7010
1002
{
1070
    41
1040
0.5
1002
}
  0
LINE
  5
1E85
330
1A
100
AcDbEntity
  8
0
 62
     5
100
AcDbLine
 10
113.3390187133952
 20
213.6613583932126
 30
0.0
 11
113.3390187133952
 21
207.3913843932128
 31
0.0
1001
PHOENIX7010
1002
{
1070
    41
1040
0.5
1002
}
  0
LINE
  5
1E86
330
1A
100
AcDbEntity
  8
0
 62
     5
100
AcDbLine
 10
113.3390187133952
 20
219.9313923932127
 30
0.0
 11
113.3390187133952
 21
213.6613583932126
 31
0.0
1001
PHOENIX7010
1002
{
1070
    41
1040
0.5
1002
}
  0
LWPOLYLINE
  5
1E87
330
1A
100
AcDbEntity
  8
0
 62
     5
100
AcDbPolyline
 90
        7
 70
     0
 43
0.0
 10
119.9139847133951
 20
219.3829763932126
 10
119.6240207133951
 20
219.4964803932128
 10
119.2961107133951
 20
219.5258383932128
 10
118.9402607133952
 20
219.4698843932126
 10
118.5673667133951
 20
219.3305023932128
 10
118.1889327133951
 20
219.1120183932128
 10
118.0196367133951
 20
218.9894843932127
1001
PHOENIX7010
1002
{
1070
    41
1040
0.5
1002
}
  0
LINE
  5
1E90
330
1A
100
AcDbEntity
  8
0
 62
     5
100
AcDbLine
 10
116.206174713395
 20
217.9490023932126
 30
0.0
 11
116.206174713395
 21
212.9690663932126
 31
0.0
1001
PHOENIX7010
1002
{
1070
    41
1040
0.5
1002
}
  0
LINE
  5
1E91
330
1A
100
AcDbEntity
  8
0
 62
     5
100
AcDbLine
 10
118.7212047133951
 20
219.3938863932126
 30
0.0
 11
116.2187027133952
 21
217.9490023932126
 31
0.0
1001
PHOENIX7010
1002
{
1070
    41
1040
0.5
1002
}
  0
LWPOLYLINE
  5
1E92
330
1A
100
AcDbEntity
  8
0
 62
     5
100
AcDbPolyline
 90
       21
 70
     0
 43
0.0
 10
121.4944587133952
 20
212.4174163932127
 10
121.6836687133952
 20
212.5362583932126
 10
122.056592713395
 20
212.8274503932128
 10
122.4124287133952
 20
213.1824003932127
 10
122.7403387133952
 20
213.5903743932126
 10
123.0303167133952
 20
214.0386923932126
 10
123.2736027133951
 20
214.5139663932127
 10
123.4629647133952
 20
215.0019263932127
 10
123.5924507133952
 20
215.4875763932127
 10
123.6581867133952
 20
215.9561203932126
 10
123.6581867133952
 20
216.3930943932125
 10
123.5924507133952
 20
216.7857323932126
 10
123.4629947133951
 20
217.1218843932127
 10
123.2736347133952
 20
217.3911783932126
 10
123.0303487133951
 20
217.5855523932128
 10
122.7404007133952
 20
217.6990543932127
 10
122.412488713395
 20
217.7284123932127
 10
122.0566547133951
 20
217.6724583932128
 10
121.6837287133951
 20
217.5330783932127
 10
121.3053107133951
 20
217.3145943932127
 10
121.1360307133952
 20
217.1920583932126
1001
PHOENIX7010
1002
{
1070
    41
1040
0.5
1002
}
  0
LINE
  5
1EA9
330
1A
100
AcDbEntity
  8
0
 62
     5
100
AcDbLine
 10
119.3226607133952
 20
216.1516003932127
 30
0.0
 11
119.3226607133952
 21
211.1716423932128
 31
0.0
1001
PHOENIX7010
1002
{
1070
    41
1040
0.5
1002
}
  0
LINE
  5
1EAA
330
1A
100
AcDbEntity
  8
0
 62
     5
100
AcDbLine
 10
121.8376607133953
 20
217.5964623932127
 30
0.0
 11
119.3350807133952
 21
216.1516003932127
 31
0.0
1001
PHOENIX7010
1002
{
1070
    41
1040
0.5
1002
}
  0
LINE
  5
1EAB
330
1A
100
AcDbEntity
  8
0
 62
     5
100
AcDbLine
 10
121.4944907133951
 20
212.4174383932127
 30
0.0
 11
119.336758713395
 21
211.1716423932128
 31
0.0
1001
PHOENIX7010
1002
{
1070
    41
1040
0.5
1002
}
  0
LINE
  5
1EAC
330
1A
100
AcDbEntity
  8
0
 62
     5
100
AcDbLine
 10
119.3358907133952
 20
211.1702763932126
 30
0.0
 11
116.220320713395
 21
212.9690663932126
 31
0.0
1001
PHOENIX7010
1002
{
1070
    41
1040
0.5
1002
}
  0
LINE
  5
1EAD
330
1A
100
AcDbEntity
  8
0
 62
     5
100
AcDbLine
 10
119.3343187133951
 20
216.1502343932127
 30
0.0
 11
116.2187027133952
 21
217.9490023932126
 31
0.0
1001
PHOENIX7010
1002
{
1070
    41
1040
0.5
1002
}
  0
LINE
  5
1EAE
330
1A
100
AcDbEntity
  8
0
 62
     5
100
AcDbLine
 10
123.0295547133951
 20
217.5841643932126
 30
0.0
 11
119.9139847133951
 21
219.3829843932126
 31
0.0
1001
PHOENIX7010
1002
{
1070
    41
1040
0.5
1002
}
  0
LINE
  5
1EAF
330
1A
100
AcDbEntity
  8
0
 62
     5
100
AcDbLine
 10
125.6520207133951
 20
228.8130303932128
 30
0.0
 11
129.3428487133951
 21
230.9438903932128
 31
0.0
1001
PHOENIX7010
1002
{
1070
    41
1040
0.5
1002
}
  0
LINE
  5
1EB0
330
1A
100
AcDbEntity
  8
0
 62
     5
100
AcDbLine
 10
123.4801767133951
 20
230.0670063932127
 30
0.0
 11
127.1710027133952
 21
232.1978963932127
 31
0.0
1001
PHOENIX7010
1002
{
1070
    41
1040
0.5
1002
}
  0
LINE
  5
1EB1
330
1A
100
AcDbEntity
  8
0
 62
     5
100
AcDbLine
 10
123.4801767133951
 20
230.0670063932127
 30
0.0
 11
125.6520207133951
 21
228.8130303932128
 31
0.0
1001
PHOENIX7010
1002
{
1070
    41
1040
0.5
1002
}
  0
LINE
  5
1EB2
330
1A
100
AcDbEntity
  8
0
 62
     5
100
AcDbLine
 10
127.1710027133952
 20
232.1978963932127
 30
0.0
 11
129.3428487133951
 21
230.9438903932128
 31
0.0
1001
PHOENIX7010
1002
{
1070
    41
1040
0.5
1002
}
  0
LINE
  5
1EB3
330
1A
100
AcDbEntity
  8
0
 62
     5
100
AcDbLine
 10
125.6520207133951
 20
228.8130303932128
 30
0.0
 11
125.6520207133951
 21
226.9697683932127
 31
0.0
1001
PHOENIX7010
1002
{
1070
    41
1040
0.5
1002
}
  0
LINE
  5
1EB4
330
1A
100
AcDbEntity
  8
0
 62
     5
100
AcDbLine
 10
129.3428487133951
 20
230.9438903932128
 30
0.0
 11
129.3428487133951
 21
230.1401783932127
 31
0.0
1001
PHOENIX7010
1002
{
1070
    41
1040
0.5
1002
}
  0
LINE
  5
1EB5
330
1A
100
AcDbEntity
  8
0
 62
     5
100
AcDbLine
 10
125.646742713395
 20
214.4973643932126
 30
0.0
 11
116.3278787133952
 21
209.1171383932126
 31
0.0
1001
PHOENIX7010
1002
{
1070
    41
1040
0.5
1002
}
  0
LINE
  5
1EB6
330
1A
100
AcDbEntity
  8
0
 62
     5
100
AcDbLine
 10
129.3428487133951
 20
230.1401783932127
 30
0.0
 11
134.2606327133951
 21
233.7957423932128
 31
0.0
1001
PHOENIX7010
1002
{
1070
    41
1040
0.5
1002
}
  0
LINE
  5
1EB7
330
1A
100
AcDbEntity
  8
0
 62
     5
100
AcDbLine
 10
129.3017707133951
 20
217.3110623932128
 30
0.0
 11
132.7300547133952
 21
220.1865503932126
 31
0.0
1001
PHOENIX7010
1002
{
1070
    41
1040
0.5
1002
}
  0
LWPOLYLINE
  5
20F2
330
1A
100
AcDbEntity
  8
0
 62
     5
100
AcDbPolyline
 90
        7
 70
     0
 43
0.0
 10
120.3710241719639
 20
150.6303974620614
 10
120.0810461719638
 20
150.7439074620613
 10
119.7531661719638
 20
150.7732574620613
 10
119.3973001719639
 20
150.7173114620614
 10
119.0243761719639
 20
150.5779234620613
 10
118.6459581719639
 20
150.3594394620613
 10
118.4766461719639
 20
150.2369034620615
1001
PHOENIX7010
1002
{
1070
    41
1040
0.5
1002
}
  0
LINE
  5
20FB
330
1A
100
AcDbEntity
  8
0
 62
     5
100
AcDbLine
 10
116.6632301719639
 20
149.1964154620614
 30
0.0
 11
116.6632301719639
 21
144.2164414620613
 31
0.0
1001
PHOENIX7010
1002
{
1070
    41
1040
0.5
1002
}
  0
LINE
  5
20FC
330
1A
100
AcDbEntity
  8
0
 62
     5
100
AcDbLine
 10
119.1782761719639
 20
150.6412994620614
 30
0.0
 11
116.6757121719638
 21
149.1964154620614
 31
0.0
1001
PHOENIX7010
1002
{
1070
    41
1040
0.5
1002
}
  0
LWPOLYLINE
  5
20FD
330
1A
100
AcDbEntity
  8
0
 62
     5
100
AcDbPolyline
 90
       21
 70
     0
 43
0.0
 10
120.1475761719639
 20
144.5063274620613
 10
120.5157701719638
 20
144.7199734620615
 10
120.8886941719638
 20
145.0111734620614
 10
121.2445601719639
 20
145.3661314620615
 10
121.5724721719639
 20
145.7741054620614
 10
121.8624501719639
 20
146.2224314620614
 10
122.1057361719638
 20
146.6977194620613
 10
122.2950981719639
 20
147.1856794620614
 10
122.4245841719639
 20
147.6713374620615
 10
122.4903181719639
 20
148.1398894620613
 10
122.4903181719639
 20
148.5768694620615
 10
122.4245841719639
 20
148.9695094620613
 10
122.2951281719638
 20
149.3056674620613
 10
122.105766171964
 20
149.5749694620613
 10
121.8624801719638
 20
149.7693434620614
 10
121.5725021719638
 20
149.8828534620613
 10
121.244622171964
 20
149.9122054620613
 10
120.8887561719639
 20
149.8562574620614
 10
120.5158301719639
 20
149.7168694620613
 10
120.1374121719639
 20
149.4983854620613
 10
119.9681021719639
 20
149.3758514620613
1001
PHOENIX7010
1002
{
1070
    41
1040
0.5
1002
}
  0
LINE
  5
2114
330
1A
100
AcDbEntity
  8
0
 62
     5
100
AcDbLine
 10
118.1546861719639
 20
148.3353314620613
 30
0.0
 11
118.1546861719639
 21
143.3553894620613
 31
0.0
1001
PHOENIX7010
1002
{
1070
    41
1040
0.5
1002
}
  0
LINE
  5
2115
330
1A
100
AcDbEntity
  8
0
 62
     5
100
AcDbLine
 10
120.6697301719639
 20
149.7802154620613
 30
0.0
 11
118.1671061719639
 21
148.3353314620613
 31
0.0
1001
PHOENIX7010
1002
{
1070
    41
1040
0.5
1002
}
  0
LINE
  5
2116
330
1A
100
AcDbEntity
  8
0
 62
     5
100
AcDbLine
 10
118.1546861719639
 20
143.3553894620613
 30
0.0
 11
120.3229901719639
 21
144.6073114620615
 31
0.0
1001
PHOENIX7010
1002
{
1070
    41
1040
0.5
1002
}
  0
LINE
  5
2117
330
1A
100
AcDbEntity
  8
0
 62
     5
100
AcDbLine
 10
118.0090861719639
 20
143.4389994620614
 30
0.0
 11
116.6632301719639
 21
144.2164414620613
 31
0.0
1001
PHOENIX7010
1002
{
1070
    41
1040
0.5
1002
}
  0
LINE
  5
2118
330
1A
100
AcDbEntity
  8
0
 62
     5
100
AcDbLine
 10
118.0215681719639
 20
148.4189334620614
 30
0.0
 11
116.6757121719638
 21
149.1964154620614
 31
0.0
1001
PHOENIX7010
1002
{
1070
    41
1040
0.5
1002
}
  0
LINE
  5
2119
330
1A
100
AcDbEntity
  8
0
 62
     5
100
AcDbLine
 10
121.716972171964
 20
149.8528934620615
 30
0.0
 11
120.3709941719639
 21
150.6303894620614
 31
0.0
1001
PHOENIX7010
1002
{
1070
    41
1040
0.5
1002
}
  0
LINE
  5
211A
330
1A
100
AcDbEntity
  8
0
 62
     5
100
AcDbLine
 10
111.0305101719639
 20
154.0106234620614
 30
0.0
 11
111.0305101719639
 21
138.5446194620613
 31
0.0
1001
PHOENIX7010
1002
{
1070
    41
1040
0.5
1002
}
  0
LINE
  5
211B
330
1A
100
AcDbEntity
  8
0
 62
     5
100
AcDbLine
 10
113.5651781719639
 20
152.5476114620614
 30
0.0
 11
125.7232581719638
 21
159.5670514620615
 31
0.0
1001
PHOENIX7010
1002
{
1070
    41
1040
0.5
1002
}
  0
LINE
  5
211C
330
1A
100
AcDbEntity
  8
0
 62
     5
100
AcDbLine
 10
113.5651781719639
 20
152.5476114620614
 30
0.0
 11
111.0305101719639
 21
154.0106234620614
 31
0.0
1001
PHOENIX7010
1002
{
1070
    41
1040
0.5
1002
}
  0
LINE
  5
211D
330
1A
100
AcDbEntity
  8
0
 62
     5
100
AcDbLine
 10
113.5651781719639
 20
137.0816154620613
 30
0.0
 11
111.0305101719639
 21
138.5446194620613
 31
0.0
1001
PHOENIX7010
1002
{
1070
    41
1040
0.5
1002
}
  0
LINE
  5
211E
330
1A
100
AcDbEntity
  8
0
 62
     5
100
AcDbLine
 10
125.7232581719638
 20
159.5670514620615
 30
0.0
 11
122.7439501719639
 21
161.2872194620613
 31
0.0
1001
PHOENIX7010
1002
{
1070
    41
1040
0.5
1002
}
  0
LINE
  5
211F
330
1A
100
AcDbEntity
  8
0
 62
     5
100
AcDbLine
 10
111.0305101719639
 20
154.0106234620614
 30
0.0
 11
114.7398301719638
 21
156.1522094620613
 31
0.0
1001
PHOENIX7010
1002
{
1070
    41
1040
0.5
1002
}
  0
LINE
  5
2120
330
1A
100
AcDbEntity
  8
0
 62
     5
100
AcDbLine
 10
122.7439501719639
 20
161.2872194620613
 30
0.0
 11
114.267600171964
 21
156.3934514620614
 31
0.0
1001
PHOENIX7010
1002
{
1070
    41
1040
0.5
1002
}
  0
LINE
  5
2121
330
1A
100
AcDbEntity
  8
0
 62
     5
100
AcDbLine
 10
113.5651781719639
 20
137.0816154620613
 30
0.0
 11
125.7232581719638
 21
144.1010554620613
 31
0.0
1001
PHOENIX7010
1002
{
1070
    41
1040
0.5
1002
}
  0
LINE
  5
2122
330
1A
100
AcDbEntity
  8
0
 62
     5
100
AcDbLine
 10
111.0305101719639
 20
138.5446194620613
 30
0.0
 11
112.4684361719639
 21
139.1994274620613
 31
0.0
1001
PHOENIX7010
1002
{
1070
    41
1040
0.5
1002
}
  0
LINE
  5
2123
330
1A
100
AcDbEntity
  8
0
 62
     5
100
AcDbLine
 10
125.992728171964
 20
158.2895094620614
 30
0.0
 11
125.992728171964
 21
145.7495234620614
 31
0.0
1001
PHOENIX7010
1002
{
1070
    41
1040
0.5
1002
}
  0
LINE
  5
2124
330
1A
100
AcDbEntity
  8
0
 62
     5
100
AcDbLine
 10
125.992728171964
 20
158.2895094620614
 30
0.0
 11
113.684928171964
 21
151.1835054620615
 31
0.0
1001
PHOENIX7010
1002
{
1070
    41
1040
0.5
1002
}
  0
LINE
  5
2125
330
1A
100
AcDbEntity
  8
0
 62
     5
100
AcDbLine
 10
113.684928171964
 20
151.1835054620615
 30
0.0
 11
116.1180341719639
 21
151.1835054620615
 31
0.0
1001
PHOENIX7010
1002
{
1070
    41
1040
0.5
1002
}
  0
LINE
  5
2126
330
1A
100
AcDbEntity
  8
0
 62
     5
100
AcDbLine
 10
113.684928171964
 20
138.6434814620613
 30
0.0
 11
116.1180341719639
 21
138.6434814620613
 31
0.0
1001
PHOENIX7010
1002
{
1070
    41
1040
0.5
1002
}
  0
LINE
  5
2127
330
1A
100
AcDbEntity
  8
0
 62
     5
100
AcDbLine
 10
116.1180341719639
 20
151.1835054620615
 30
0.0
 11
116.1180341719639
 21
138.6434814620613
 31
0.0
1001
PHOENIX7010
1002
{
1070
    41
1040
0.5
1002
}
  0
LINE
  5
2128
330
1A
100
AcDbEntity
  8
0
 62
     5
100
AcDbLine
 10
116.1180341719639
 20
151.1835054620615
 30
0.0
 11
114.8759681719639
 21
151.9006374620614
 31
0.0
1001
PHOENIX7010
1002
{
1070
    41
1040
0.5
1002
}
  0
LINE
  5
2129
330
1A
100
AcDbEntity
  8
0
 62
     5
100
AcDbLine
 10
116.3819201719639
 20
152.7658114620615
 30
0.0
 11
116.3819201719639
 21
151.7335854620614
 31
0.0
1001
PHOENIX7010
1002
{
1070
    41
1040
0.5
1002
}
  0
LINE
  5
212A
330
1A
100
AcDbEntity
  8
0
 62
     5
100
AcDbLine
 10
125.992728171964
 20
158.2895094620614
 30
0.0
 11
134.606560171964
 21
165.0478554620613
 31
0.0
1001
PHOENIX7010
1002
{
1070
    41
1040
0.5
1002
}
  0
LINE
  5
212B
330
1A
100
AcDbEntity
  8
0
 62
     5
100
AcDbLine
 10
125.992728171964
 20
145.7495234620614
 30
0.0
 11
133.1520921719639
 21
151.3668394620613
 31
0.0
1001
PHOENIX7010
1002
{
1070
    41
1040
0.5
1002
}
  0
LINE
  5
212C
330
1A
100
AcDbEntity
  8
0
 62
     5
100
AcDbLine
 10
136.8312601719638
 20
151.2233914620615
 30
0.0
 11
134.6432721719639
 21
149.9601634620614
 31
0.0
1001
PHOENIX7010
1002
{
1070
    41
1040
0.5
1002
}
  0
LINE
  5
212D
330
1A
100
AcDbEntity
  8
0
 62
     5
100
AcDbLine
 10
134.6432721719639
 20
149.9601634620614
 30
0.0
 11
133.0760121719638
 21
151.4386794620613
 31
0.0
1001
PHOENIX7010
1002
{
1070
    41
1040
0.5
1002
}
  0
LINE
  5
212E
330
1A
100
AcDbEntity
  8
0
 62
     5
100
AcDbLine
 10
134.606560171964
 20
165.0478554620613
 30
0.0
 11
136.8312601719638
 21
163.7634014620614
 31
0.0
1001
PHOENIX7010
1002
{
1070
    41
1040
0.5
1002
}
  0
LINE
  5
212F
330
1A
100
AcDbEntity
  8
0
 62
     5
100
AcDbLine
 10
136.8312601719638
 20
163.7634014620614
 30
0.0
 11
134.6432721719639
 21
162.5001714620614
 31
0.0
1001
PHOENIX7010
1002
{
1070
    41
1040
0.5
1002
}
  0
LINE
  5
2130
330
1A
100
AcDbEntity
  8
0
 62
     5
100
AcDbLine
 10
134.6432721719639
 20
162.5001714620614
 30
0.0
 11
133.0760121719638
 21
163.9786874620613
 31
0.0
1001
PHOENIX7010
1002
{
1070
    41
1040
0.5
1002
}
  0
LINE
  5
2131
330
1A
100
AcDbEntity
  8
0
 62
     5
100
AcDbLine
 10
134.6432721719639
 20
162.5001714620614
 30
0.0
 11
134.6432721719639
 21
149.9601634620614
 31
0.0
1001
PHOENIX7010
1002
{
1070
    41
1040
0.5
1002
}
  0
LINE
  5
2132
330
1A
100
AcDbEntity
  8
0
 62
     5
100
AcDbLine
 10
136.8312601719638
 20
163.7634014620614
 30
0.0
 11
136.8312601719638
 21
151.2233914620615
 31
0.0
1001
PHOENIX7010
1002
{
1070
    41
1040
0.5
1002
}
  0
LINE
  5
2133
330
1A
100
AcDbEntity
  8
0
 62
     5
100
AcDbLine
 10
133.0760121719638
 20
163.9786874620613
 30
0.0
 11
133.0760121719638
 21
151.4386794620613
 31
0.0
1001
PHOENIX7010
1002
{
1070
    41
1040
0.5
1002
}
  0
LINE
  5
2134
330
1A
100
AcDbEntity
  8
0
 62
     5
100
AcDbLine
 10
125.992728171964
 20
143.9062314620614
 30
0.0
 11
129.6834021719639
 21
146.0371214620613
 31
0.0
1001
PHOENIX7010
1002
{
1070
    41
1040
0.5
1002
}
  0
LINE
  5
2135
330
1A
100
AcDbEntity
  8
0
 62
     5
100
AcDbLine
 10
125.992728171964
 20
145.7495234620614
 30
0.0
 11
125.992728171964
 21
143.9062314620614
 31
0.0
1001
PHOENIX7010
1002
{
1070
    41
1040
0.5
1002
}
  0
LINE
  5
2136
330
1A
100
AcDbEntity
  8
0
 62
     5
100
AcDbLine
 10
129.6834021719639
 20
147.8803594620613
 30
0.0
 11
129.6834021719639
 21
146.0371214620613
 31
0.0
1001
PHOENIX7010
1002
{
1070
    41
1040
0.5
1002
}
  0
LINE
  5
2137
330
1A
100
AcDbEntity
  8
0
 62
     5
100
AcDbLine
 10
113.684928171964
 20
144.9135174620614
 30
0.0
 11
113.684928171964
 21
138.6434814620613
 31
0.0
1001
PHOENIX7010
1002
{
1070
    41
1040
0.5
1002
}
  0
LINE
  5
2138
330
1A
100
AcDbEntity
  8
0
 62
     5
100
AcDbLine
 10
113.684928171964
 20
151.1835054620615
 30
0.0
 11
113.684928171964
 21
144.9135174620614
 31
0.0
1001
PHOENIX7010
1002
{
1070
    41
1040
0.5
1002
}
  0
LINE
  5
2139
330
1A
100
AcDbEntity
  8
0
 62
     5
100
AcDbLine
 10
125.9979781719639
 20
160.0651594620613
 30
0.0
 11
129.6886821719638
 21
162.1960494620614
 31
0.0
1001
PHOENIX7010
1002
{
1070
    41
1040
0.5
1002
}
  0
LINE
  5
213A
330
1A
100
AcDbEntity
  8
0
 62
     5
100
AcDbLine
 10
123.8261641719639
 20
161.3191714620614
 30
0.0
 11
127.516868171964
 21
163.4500614620615
 31
0.0
1001
PHOENIX7010
1002
{
1070
    41
1040
0.5
1002
}
  0
LINE
  5
213B
330
1A
100
AcDbEntity
  8
0
 62
     5
100
AcDbLine
 10
123.8261641719639
 20
161.3191714620614
 30
0.0
 11
125.9979781719639
 21
160.0651594620613
 31
0.0
1001
PHOENIX7010
1002
{
1070
    41
1040
0.5
1002
}
  0
LINE
  5
213C
330
1A
100
AcDbEntity
  8
0
 62
     5
100
AcDbLine
 10
127.516868171964
 20
163.4500614620615
 30
0.0
 11
129.6886821719638
 21
162.1960494620614
 31
0.0
1001
PHOENIX7010
1002
{
1070
    41
1040
0.5
1002
}
  0
LINE
  5
213D
330
1A
100
AcDbEntity
  8
0
 62
     5
100
AcDbLine
 10
125.9979781719639
 20
160.0651594620613
 30
0.0
 11
125.9979781719639
 21
158.2218974620614
 31
0.0
1001
PHOENIX7010
1002
{
1070
    41
1040
0.5
1002
}
  0
LINE
  5
213E
330
1A
100
AcDbEntity
  8
0
 62
     5
100
AcDbLine
 10
129.6886821719638
 20
162.1960494620614
 30
0.0
 11
129.6886821719638
 21
161.3923214620613
 31
0.0
1001
PHOENIX7010
1002
{
1070
    41
1040
0.5
1002
}
  0
LINE
  5
213F
330
1A
100
AcDbEntity
  8
0
 62
     5
100
AcDbLine
 10
125.992728171964
 20
145.7495234620614
 30
0.0
 11
116.6737901719639
 21
140.3692434620614
 31
0.0
1001
PHOENIX7010
1002
{
1070
    41
1040
0.5
1002
}
  0
LINE
  5
2140
330
1A
100
AcDbEntity
  8
0
 62
     5
100
AcDbLine
 10
129.6886821719638
 20
161.3923214620613
 30
0.0
 11
134.606560171964
 21
165.0478554620613
 31
0.0
1001
PHOENIX7010
1002
{
1070
    41
1040
0.5
1002
}
  0
LINE
  5
2141
330
1A
100
AcDbEntity
  8
0
 62
     5
100
AcDbLine
 10
129.6476981719638
 20
148.5631754620615
 30
0.0
 11
133.0760121719638
 21
151.4386794620613
 31
0.0
1001
PHOENIX7010
1002
{
1070
    41
1040
0.5
1002
}
  0
LINE
  5
2142
330
1A
100
AcDbEntity
  8
0
  6
PUNKTIERT
 62
     5
100
AcDbLine
 10
151.5987481719639
 20
130.1855274620614
 30
0.0
 11
185.514794171964
 21
153.4843854620615
 31
0.0
1001
PHOENIX7010
1002
{
1070
    41
1040
0.5
1002
}
  0
LINE
  5
2143
330
1A
100
AcDbEntity
  8
0
  6
PUNKTIERT
 62
     5
100
AcDbLine
 10
147.7647621719638
 20
151.4199174620614
 30
0.0
 11
187.5792761719638
 21
134.0195354620614
 31
0.0
1001
PHOENIX7010
1002
{
1070
    41
1040
0.5
1002
}
  0
LWPOLYLINE
  5
2144
330
1A
100
AcDbEntity
  8
0
 62
     5
100
AcDbPolyline
 90
       21
 70
     0
 43
0.0
 10
180.1041181719638
 20
130.5596954620614
 10
179.2007981719639
 20
132.0787014620614
 10
178.3375161719639
 20
133.3795974620614
 10
177.5126881719639
 20
134.4848434620614
 10
176.7246941719638
 20
135.4169034620613
 10
175.9719461719639
 20
136.1982374620613
 10
175.2528001719638
 20
136.8513134620614
 10
174.5656961719639
 20
137.3985934620614
 10
173.908988171964
 20
137.8625454620614
 10
173.2810601719639
 20
138.2656294620615
 10
172.6803521719639
 20
138.6303054620614
 10
172.1052161719637
 20
138.9790454620613
 10
171.5540381719638
 20
139.3343094620613
 10
171.025230171964
 20
139.7185554620614
 10
170.5171741719639
 20
140.1542554620614
 10
170.0282821719638
 20
140.6638754620614
 10
169.556938171964
 20
141.2698714620614
 10
169.1014941719638
 20
141.9947014620613
 10
168.6603921719638
 20
142.8608514620614
 10
168.2319861719638
 20
143.8907574620614
 10
167.814690171964
 20
145.1069074620614
1001
PHOENIX7010
1002
{
1070
    41
1040
0.5
1002
}
  0
LWPOLYLINE
  5
215B
330
1A
100
AcDbEntity
  8
0
 62
     5
100
AcDbPolyline
 90
       21
 70
     0
 43
0.0
 10
167.8146581719638
 20
145.1069454620615
 10
167.4670021719639
 20
145.4861714620615
 10
167.1460181719637
 20
145.8431054620614
 10
166.8501201719639
 20
146.1801034620614
 10
166.5777501719637
 20
146.4994994620615
 10
166.327384171964
 20
146.8036454620614
 10
166.0974341719638
 20
147.0948834620615
 10
165.8863441719638
 20
147.3755534620613
 10
165.6926201719639
 20
147.6480054620613
 10
165.514610171964
 20
147.9145774620615
 10
165.3508521719639
 20
148.1776154620613
 10
165.1997301719639
 20
148.4394634620614
 10
165.0597161719638
 20
148.7024734620613
 10
164.9292521719637
 20
148.9689834620615
 10
164.8067541719638
 20
149.2413294620614
 10
164.6907261719639
 20
149.5218694620614
 10
164.579552171964
 20
149.8129394620614
 10
164.4717321719638
 20
150.1168934620614
 10
164.3656841719639
 20
150.4360614620614
 10
164.2598501719637
 20
150.7727934620614
 10
164.152672171964
 20
151.1294354620613
1001
PHOENIX7010
1002
{
1070
    41
1040
0.5
1002
}
  0
LWPOLYLINE
  5
2172
330
1A
100
AcDbEntity
  8
0
 62
     5
100
AcDbPolyline
 90
       21
 70
     0
 43
0.0
 10
164.1525501719638
 20
151.1294754620614
 10
164.0939261719638
 20
151.2276494620614
 10
164.0516881719638
 20
151.3491094620612
 10
164.0233381719638
 20
151.4921614620614
 10
164.0064621719639
 20
151.6551174620613
 10
163.9985581719638
 20
151.8362774620614
 10
163.9972161719638
 20
152.0339554620614
 10
163.999932171964
 20
152.2464634620614
 10
164.004264171964
 20
152.4721034620613
 10
164.007774171964
 20
152.7092014620614
 10
164.0079881719639
 20
152.9560514620614
 10
164.0024341719638
 20
153.2109714620615
 10
163.988670171964
 20
153.4722634620614
 10
163.9642261719639
 20
153.7382474620615
 10
163.9266581719639
 20
154.0072214620613
 10
163.873496171964
 20
154.2774994620613
 10
163.8023001719639
 20
154.5473974620613
 10
163.710594171964
 20
154.8152114620613
 10
163.5959081719638
 20
155.0792654620613
 10
163.4558021719638
 20
155.3378634620615
 10
163.287834171964
 20
155.5893134620614
1001
PHOENIX7010
1002
{
1070
    41
1040
0.5
1002
}
  0
LWPOLYLINE
  5
2189
330
1A
100
AcDbEntity
  8
0
 62
     5
100
AcDbPolyline
 90
       21
 70
     0
 43
0.0
 10
163.2878941719639
 20
155.5893294620614
 10
163.1419901719639
 20
155.7723954620614
 10
162.9808881719639
 20
155.9481694620613
 10
162.806144171964
 20
156.1159634620614
 10
162.6192861719639
 20
156.2750894620615
 10
162.4218981719639
 20
156.4248694620614
 10
162.2155081719638
 20
156.5646174620615
 10
162.0017021719639
 20
156.6936454620613
 10
161.7820061719637
 20
156.8112834620615
 10
161.5580061719638
 20
156.9168354620615
 10
161.3312301719638
 20
157.0096234620614
 10
161.103234171964
 20
157.0889614620614
 10
160.8755721719638
 20
157.1541714620614
 10
160.6498341719639
 20
157.2045634620613
 10
160.4275121719638
 20
157.2394594620614
 10
160.210228171964
 20
157.2581754620614
 10
159.999474171964
 20
157.2600214620613
 10
159.796868171964
 20
157.2443194620614
 10
159.6039041719639
 20
157.2103834620613
 10
159.4221721719639
 20
157.1575354620613
 10
159.2532261719639
 20
157.0850874620614
1001
PHOENIX7010
1002
{
1070
    41
1040
0.5
1002
}
  0
LWPOLYLINE
  5
21A0
330
1A
100
AcDbEntity
  8
0
 62
     5
100
AcDbPolyline
 90
       21
 70
     0
 43
0.0
 10
159.253074171964
 20
157.0850714620615
 10
158.7781901719638
 20
156.7914314620614
 10
158.252280171964
 20
156.3640394620613
 10
157.6960381719639
 20
155.8074614620614
 10
157.1300581719638
 20
155.1262394620614
 10
156.5749741719639
 20
154.3249314620614
 10
156.0514761719639
 20
153.4080914620613
 10
155.5801321719639
 20
152.3802754620615
 10
155.1816021719639
 20
151.2460354620614
 10
154.8765481719638
 20
150.0099294620613
 10
154.6855701719639
 20
148.6765014620614
 10
154.6293561719637
 20
147.2503234620615
 10
154.7284461719639
 20
145.7359354620614
 10
155.0035941719638
 20
144.1378894620613
 10
155.475334171964
 20
142.4607574620613
 10
156.1643601719638
 20
140.7090714620615
 10
157.091270171964
 20
138.8874014620614
 10
158.2767561719638
 20
137.0003014620613
 10
159.7414161719639
 20
135.0523114620614
 10
161.5058821719637
 20
133.0479994620614
 10
163.5907821719638
 20
130.9919174620613
1001
PHOENIX7010
1002
{
1070
    41
1040
0.5
1002
}
  0
LWPOLYLINE
  5
21B7
330
1A
100
AcDbEntity
  8
0
 62
     5
100
AcDbPolyline
 90
       21
 70
     0
 43
0.0
 10
163.5905681719639
 20
130.9919014620614
 10
163.8969641719638
 20
130.7020674620614
 10
164.1534961719637
 20
130.4451034620613
 10
164.3645561719638
 20
130.2174494620615
 10
164.5345381719639
 20
130.0155214620613
 10
164.6678701719638
 20
129.8357574620613
 10
164.7689141719638
 20
129.6745794620615
 10
164.8421241719638
 20
129.5284234620615
 10
164.891868171964
 20
129.3937114620614
 10
164.922570171964
 20
129.2668794620613
 10
164.9386221719639
 20
129.1443594620614
 10
164.9444201719639
 20
129.0225634620615
 10
164.9443901719639
 20
128.8979374620614
 10
164.9429241719638
 20
128.7669034620614
 10
164.9444501719638
 20
128.6258954620614
 10
164.9533301719639
 20
128.4713394620614
 10
164.9739921719638
 20
128.2996554620613
 10
165.0108561719639
 20
128.1072874620613
 10
165.068290171964
 20
127.8906594620614
 10
165.1507181719639
 20
127.6461974620613
 10
165.2625661719639
 20
127.3703354620613
1001
PHOENIX7010
1002
{
1070
    41
1040
0.5
1002
}
  0
LWPOLYLINE
  5
21CE
330
1A
100
AcDbEntity
  8
0
 62
     5
100
AcDbPolyline
 90
       21
 70
     0
 43
0.0
 10
190.010826171964
 20
127.2147174620613
 10
189.5778721719639
 20
127.6772794620615
 10
189.1360401719639
 20
128.1475714620615
 10
188.6861181719639
 20
128.6261474620614
 10
188.2289341719638
 20
129.1135514620614
 10
187.7652821719639
 20
129.6103314620614
 10
187.2959221719638
 20
130.1170394620615
 10
186.8217081719638
 20
130.6342194620613
 10
186.3434361719639
 20
131.1624334620614
 10
185.861870171964
 20
131.7022134620613
 10
185.3778601719639
 20
132.2541234620614
 10
184.8921441719637
 20
132.8186994620614
 10
184.4055701719639
 20
133.3964954620614
 10
183.9189381719639
 20
133.9880714620615
 10
183.4330061719638
 20
134.5939594620613
 10
182.9486321719639
 20
135.2147174620613
 10
182.4665761719639
 20
135.8508874620613
 10
181.9876321719639
 20
136.5030334620614
 10
181.512626171964
 20
137.1716874620613
 10
181.0423821719639
 20
137.8574094620614
 10
180.5776281719638
 20
138.5607414620613
1001
PHOENIX7010
1002
{
1070
    41
1040
0.5
1002
}
  0
LWPOLYLINE
  5
21E5
330
1A
100
AcDbEntity
  8
0
 62
     5
100
AcDbPolyline
 90
       21
 70
     0
 43
0.0
 10
180.5776281719638
 20
138.5607634620614
 10
180.1934441719638
 20
139.1367914620614
 10
179.8041301719638
 20
139.6608994620615
 10
179.4071281719639
 20
140.1351974620613
 10
178.9998401719638
 20
140.5617634620614
 10
178.5796441719637
 20
140.9427074620614
 10
178.1439741719639
 20
141.2801254620613
 10
177.690238171964
 20
141.5761074620613
 10
177.2158121719637
 20
141.8327434620614
 10
176.7181621719639
 20
142.0521514620614
 10
176.1946941719638
 20
142.2364074620614
 10
175.6427541719638
 20
142.3876154620614
 10
175.0598061719638
 20
142.5078614620613
 10
174.4432301719639
 20
142.5992614620613
 10
173.7904581719638
 20
142.6638974620614
 10
173.0989001719638
 20
142.7038694620614
 10
172.3659581719639
 20
142.7212714620614
 10
171.5890121719637
 20
142.7182034620614
 10
170.765526171964
 20
142.6967574620614
 10
169.8928441719638
 20
142.6590374620614
 10
168.9684361719639
 20
142.6071274620615
1001
PHOENIX7010
1002
{
1070
    41
1040
0.5
1002
}
  0
LWPOLYLINE
  5
21FC
330
1A
100
AcDbEntity
  8
0
 62
     5
100
AcDbPolyline
 90
       21
 70
     0
 43
0.0
 10
166.7170941719639
 20
145.0109514620615
 10
166.6102521719638
 20
144.7193794620614
 10
166.5187901719639
 20
144.4597814620613
 10
166.4397501719638
 20
144.2294654620614
 10
166.3700181719639
 20
144.0257374620614
 10
166.3065721719638
 20
143.8458894620614
 10
166.2463601719639
 20
143.6872294620614
 10
166.1863621719637
 20
143.5470534620613
 10
166.1235281719639
 20
143.4226714620613
 10
166.0548321719639
 20
143.3113814620615
 10
165.977164171964
 20
143.2104754620613
 10
165.8875341719638
 20
143.1172674620613
 10
165.7829201719639
 20
143.0290554620615
 10
165.6602101719638
 20
142.9431414620615
 10
165.516410171964
 20
142.8568234620613
 10
165.348472171964
 20
142.7674054620613
 10
165.1533421719639
 20
142.6721834620614
 10
164.927970171964
 20
142.5684694620613
 10
164.669334171964
 20
142.4535554620613
 10
164.3743521719639
 20
142.3247494620614
 10
164.0400321719639
 20
142.1793474620613
1001
PHOENIX7010
1002
{
1070
    41
1040
0.5
1002
}
  0
LWPOLYLINE
  5
2213
330
1A
100
AcDbEntity
  8
0
 62
     5
100
AcDbPolyline
 90
       21
 70
     0
 43
0.0
 10
165.2472161719638
 20
146.7977714620615
 10
165.026940171964
 20
146.5655334620614
 10
164.8088001719638
 20
146.3612934620614
 10
164.593682171964
 20
146.1809494620613
 10
164.3824381719639
 20
146.0204274620614
 10
164.1758641719639
 20
145.8756454620613
 10
163.9748761719638
 20
145.7425034620614
 10
163.7802661719638
 20
145.6169314620613
 10
163.5929181719639
 20
145.4948394620615
 10
163.4136581719638
 20
145.3721434620613
 10
163.2433081719639
 20
145.2447554620614
 10
163.0827561719638
 20
145.1085934620614
 10
162.932854171964
 20
144.9595754620613
 10
162.7943961719638
 20
144.7936054620613
 10
162.6682961719639
 20
144.6066174620614
 10
162.5553201719638
 20
144.3945034620615
 10
162.4563821719639
 20
144.1531934620614
 10
162.3723381719639
 20
143.8786054620614
 10
162.3039481719638
 20
143.5666394620614
 10
162.2521581719638
 20
143.2132214620614
 10
162.2177361719639
 20
142.8142654620615
1001
PHOENIX7010
1002
{
1070
    41
1040
0.5
1002
}
  0
LWPOLYLINE
  5
222A
330
1A
100
AcDbEntity
  8
0
 62
     5
100
AcDbPolyline
 90
       21
 70
     0
 43
0.0
 10
164.0579761719639
 20
151.2362854620614
 10
163.9706641719638
 20
150.7727094620613
 10
163.8526541719639
 20
150.3320274620614
 10
163.7067481719639
 20
149.9145314620614
 10
163.535880171964
 20
149.5205034620614
 10
163.3428581719638
 20
149.1502334620613
 10
163.1305461719639
 20
148.8040114620614
 10
162.9018481719638
 20
148.4821194620613
 10
162.6596001719638
 20
148.1848554620615
 10
162.4066701719639
 20
147.9125014620613
 10
162.145928171964
 20
147.6653394620614
 10
161.8802101719639
 20
147.4436754620615
 10
161.612418171964
 20
147.2477754620613
 10
161.3453901719638
 20
147.0779374620613
 10
161.0819921719637
 20
146.9344594620613
 10
160.8250961719638
 20
146.8176154620614
 10
160.577568171964
 20
146.7276954620613
 10
160.342246171964
 20
146.6649894620614
 10
160.1220321719638
 20
146.6297794620613
 10
159.919792171964
 20
146.6223714620614
 10
159.7383341719639
 20
146.6430314620613
1001
PHOENIX7010
1002
{
1070
    41
1040
0.5
1002
}
  0
LWPOLYLINE
  5
2241
330
1A
100
AcDbEntity
  8
0
 62
     5
100
AcDbPolyline
 90
       21
 70
     0
 43
0.0
 10
159.7383961719638
 20
146.6430694620614
 10
159.4876321719639
 20
146.7521174620615
 10
159.2426061719639
 20
146.9686014620613
 10
159.0092381719639
 20
147.2810774620614
 10
158.7934181719638
 20
147.6780894620615
 10
158.6010361719639
 20
148.1481894620615
 10
158.4379501719638
 20
148.6799114620614
 10
158.3101121719639
 20
149.2618054620614
 10
158.223380171964
 20
149.8824114620613
 10
158.1836461719638
 20
150.5302914620613
 10
158.196800171964
 20
151.1939734620614
 10
158.2687601719638
 20
151.8620174620614
 10
158.4054181719639
 20
152.5229614620614
 10
158.6126641719638
 20
153.1653474620614
 10
158.8963541719638
 20
153.7777294620614
 10
159.2624441719638
 20
154.3486434620613
 10
159.716788171964
 20
154.8666414620613
 10
160.2652821719639
 20
155.3202774620613
 10
160.913840171964
 20
155.6980774620615
 10
161.6683281719638
 20
155.9886054620613
 10
162.5346601719638
 20
156.1803934620614
1001
PHOENIX7010
1002
{
1070
    41
1040
0.5
1002
}
  0
LINE
  5
2258
330
1A
100
AcDbEntity
  8
0
 62
     5
100
AcDbLine
 10
129.0227581719639
 20
122.5520974620613
 30
0.0
 11
155.7498701719639
 21
107.1211574620613
 31
0.0
1001
PHOENIX7010
1002
{
1070
    41
1040
0.5
1002
}
  0
LINE
  5
2259
330
1A
100
AcDbEntity
  8
0
 62
     5
100
AcDbLine
 10
119.9616321719638
 20
130.1481054620615
 30
0.0
 11
118.5186081719639
 21
129.3149454620613
 31
0.0
1001
PHOENIX7010
1002
{
1070
    41
1040
0.5
1002
}
  0
LINE
  5
225A
330
1A
100
AcDbEntity
  8
0
 62
     5
100
AcDbLine
 10
121.4046861719639
 20
130.9812354620615
 30
0.0
 11
119.9616321719638
 21
130.1481054620615
 31
0.0
1001
PHOENIX7010
1002
{
1070
    41
1040
0.5
1002
}
  0
LWPOLYLINE
  5
225B
330
1A
100
AcDbEntity
  8
0
 62
     5
100
AcDbPolyline
 90
       21
 70
     0
 43
0.0
 10
130.0466221719639
 20
125.9975014620613
 10
129.4350821719638
 20
126.0174974620613
 10
128.8169781719639
 20
126.0660814620614
 10
128.194084171964
 20
126.1410474620613
 10
127.568016171964
 20
126.2401994620613
 10
126.940574171964
 20
126.3613234620613
 10
126.3133781719639
 20
126.5022094620612
 10
125.6881941719639
 20
126.6606634620614
 10
125.0667041719639
 20
126.8344694620614
 10
124.4506461719638
 20
127.0214274620614
 10
123.8416661719639
 20
127.2193254620613
 10
123.2415381719638
 20
127.4259674620614
 10
122.6519081719639
 20
127.6391414620614
 10
122.0745461719639
 20
127.8566314620614
 10
121.511100171964
 20
128.0762514620614
 10
120.9633101719639
 20
128.2957794620613
 10
120.432854171964
 20
128.5130194620615
 10
119.9214701719638
 20
128.7257574620614
 10
119.430870171964
 20
128.9317974620614
 10
118.962730171964
 20
129.1289174620615
 10
118.5187601719638
 20
129.3149294620614
1001
PHOENIX7010
1002
{
1070
    41
1040
0.5
1002
}
  0
LWPOLYLINE
  5
2272
330
1A
100
AcDbEntity
  8
0
 62
     5
100
AcDbPolyline
 90
       21
 70
     0
 43
0.0
 10
130.0466221719639
 20
125.9975014620613
 10
130.143120171964
 20
126.0291014620613
 10
130.227776171964
 20
126.0593294620614
 10
130.3010481719639
 20
126.0883674620613
 10
130.3633041719638
 20
126.1164214620614
 10
130.4149101719638
 20
126.1436794620613
 10
130.4562601719638
 20
126.1703454620615
 10
130.487786171964
 20
126.1966054620613
 10
130.5098181719638
 20
126.2226674620615
 10
130.5227581719639
 20
126.2487294620614
 10
130.527030171964
 20
126.2749754620613
 10
130.5229721719638
 20
126.3016094620613
 10
130.5110081719638
 20
126.3288234620613
 10
130.4915081719639
 20
126.3568234620613
 10
130.4648961719638
 20
126.3857914620614
 10
130.4315101719639
 20
126.4159354620615
 10
130.3917461719638
 20
126.4474454620613
 10
130.346030171964
 20
126.4805174620615
 10
130.2947001719637
 20
126.5153534620613
 10
130.2381821719639
 20
126.5521514620614
 10
130.1768721719638
 20
126.5910994620615
1001
PHOENIX7010
1002
{
1070
    41
1040
0.5
1002
}
  0
LWPOLYLINE
  5
2289
330
1A
100
AcDbEntity
  8
0
 62
     5
100
AcDbPolyline
 90
       21
 70
     0
 43
0.0
 10
130.1769341719639
 20
126.5911134620614
 10
129.7441321719638
 20
126.8354154620615
 10
129.3110581719638
 20
127.0742154620613
 10
128.8775861719639
 20
127.3079794620614
 10
128.443748171964
 20
127.5372114620613
 10
128.0094221719639
 20
127.7623794620613
 10
127.5745781719638
 20
127.9839674620614
 10
127.1391821719639
 20
128.2024734620613
 10
126.7031781719638
 20
128.4183614620615
 10
126.2665021719638
 20
128.6321214620613
 10
125.8291241719639
 20
128.8442334620613
 10
125.3909841719639
 20
129.0551954620614
 10
124.9520181719638
 20
129.2654674620614
 10
124.5121681719638
 20
129.4755514620615
 10
124.0714341719638
 20
129.6859234620615
 10
123.6296921719638
 20
129.8970594620614
 10
123.1869421719639
 20
130.1094554620613
 10
122.7431261719639
 20
130.3235894620613
 10
122.2982101719638
 20
130.5399354620613
 10
121.8520741719639
 20
130.7589834620614
 10
121.404746171964
 20
130.9812194620613
1001
PHOENIX7010
1002
{
1070
    41
1040
0.5
1002
}
  0
LWPOLYLINE
  5
22A0
330
1A
100
AcDbEntity
  8
0
 62
     5
100
AcDbPolyline
 90
       21
 70
     0
 43
0.0
 10
129.0227581719639
 20
122.5520974620613
 10
128.254264171964
 20
123.0118134620613
 10
127.515342171964
 20
123.4585294620615
 10
126.8053521719639
 20
123.8922834620614
 10
126.1235881719638
 20
124.3131054620614
 10
125.4694441719639
 20
124.7210434620615
 10
124.8422161719638
 20
125.1161074620613
 10
124.2412641719638
 20
125.4983394620615
 10
123.6659461719639
 20
125.8677794620614
 10
123.1155321719638
 20
126.2244534620613
 10
122.589440171964
 20
126.5683934620615
 10
122.0869681719639
 20
126.8996394620615
 10
121.6074441719638
 20
127.2182194620613
 10
121.150230171964
 20
127.5241734620613
 10
120.7146521719639
 20
127.8175234620614
 10
120.3000401719639
 20
128.0983074620615
 10
119.9057541719639
 20
128.3665654620613
 10
119.5311501719638
 20
128.6223254620613
 10
119.1755301719638
 20
128.8656114620614
 10
118.8382181719639
 20
129.0964694620613
 10
118.5186081719639
 20
129.3149294620614
1001
PHOENIX7010
1002
{
1070
    41
1040
0.5
1002
}
  0
LINE
  5
22B7
330
1A
100
AcDbEntity
  8
0
 62
     5
100
AcDbLine
 10
130.1769341719639
 20
126.5911134620614
 30
0.0
 11
160.0295641719638
 21
109.3789094620613
 31
0.0
1001
PHOENIX7010
1002
{
1070
    41
1040
0.5
1002
}
  0
LINE
  5
22B8
330
1A
100
AcDbEntity
  8
0
  6
PUNKTIERT
 62
     5
100
AcDbLine
 10
126.0025861719639
 20
115.9544554620613
 30
0.0
 11
159.623680171964
 21
121.8529094620614
 31
0.0
1001
PHOENIX7010
1002
{
1070
    41
1040
0.5
1002
}
  0
LINE
  5
22B9
330
1A
100
AcDbEntity
  8
0
  6
PUNKTIERT
 62
     5
100
AcDbLine
 10
137.2095561719638
 20
130.7005954620613
 30
0.0
 11
144.382958171964
 21
104.4834094620614
 31
0.0
1001
PHOENIX7010
1002
{
1070
    41
1040
0.5
1002
}
  0
LINE
  5
22BF
330
1A
100
AcDbEntity
  8
0
 62
     5
100
AcDbLine
 10
130.0293469613355
 20
279.6683937208036
 30
0.0
 11
134.9471309613354
 21
283.3239577208037
 31
0.0
1001
PHOENIX7010
1002
{
1070
    41
1040
0.5
1002
}
  0
LINE
  5
22C0
330
1A
100
AcDbEntity
  8
0
 62
     5
100
AcDbLine
 10
134.9839049613356
 20
280.7762277208037
 30
0.0
 11
133.4165529613356
 21
282.2547437208036
 31
0.0
1001
PHOENIX7010
1002
{
1070
    41
1040
0.5
1002
}
  0
LINE
  5
22C1
330
1A
100
AcDbEntity
  8
0
 62
     5
100
AcDbLine
 10
126.3332409613354
 20
276.5655877208037
 30
0.0
 11
134.9471309613354
 21
283.3239577208037
 31
0.0
1001
PHOENIX7010
1002
{
1070
    41
1040
0.5
1002
}
  0
LINE
  5
22C2
330
1A
100
AcDbEntity
  8
0
 62
     5
100
AcDbLine
 10
124.1666749613355
 20
279.5952217208037
 30
0.0
 11
126.3385189613354
 21
278.3412457208037
 31
0.0
1001
PHOENIX7010
1002
{
1070
    41
1040
0.5
1002
}
  0
LINE
  5
22C3
330
1A
100
AcDbEntity
  8
0
 62
     5
100
AcDbLine
 10
124.1666749613355
 20
279.5952217208037
 30
0.0
 11
127.8575009613355
 21
281.7261117208036
 31
0.0
1001
PHOENIX7010
1002
{
1070
    41
1040
0.5
1002
}
  0
LINE
  5
22C4
330
1A
100
AcDbEntity
  8
0
 62
     5
100
AcDbLine
 10
126.0637709613354
 20
277.8431377208035
 30
0.0
 11
123.0845529613354
 21
279.5632777208036
 31
0.0
1001
PHOENIX7010
1002
{
1070
    41
1040
0.5
1002
}
  0
LINE
  5
22C5
330
1A
100
AcDbEntity
  8
0
 62
     5
100
AcDbLine
 10
130.0293469613355
 20
280.4721057208037
 30
0.0
 11
130.0293469613355
 21
279.6683937208036
 31
0.0
1001
PHOENIX7010
1002
{
1070
    41
1040
0.5
1002
}
  0
LINE
  5
22C6
330
1A
100
AcDbEntity
  8
0
 62
     5
100
AcDbLine
 10
126.3385189613354
 20
278.3412457208037
 30
0.0
 11
126.3385189613354
 21
276.4979837208036
 31
0.0
1001
PHOENIX7010
1002
{
1070
    41
1040
0.5
1002
}
  0
LINE
  5
22C7
330
1A
100
AcDbEntity
  8
0
 62
     5
100
AcDbLine
 10
127.8575009613355
 20
281.7261117208036
 30
0.0
 11
130.0293469613355
 21
280.4721057208037
 31
0.0
1001
PHOENIX7010
1002
{
1070
    41
1040
0.5
1002
}
  0
LINE
  5
22C8
330
1A
100
AcDbEntity
  8
0
 62
     5
100
AcDbLine
 10
126.3385189613354
 20
278.3412457208037
 30
0.0
 11
130.0293469613355
 21
280.4721057208037
 31
0.0
1001
PHOENIX7010
1002
{
1070
    41
1040
0.5
1002
}
  0
LINE
  5
22C9
330
1A
100
AcDbEntity
  8
0
 62
     5
100
AcDbLine
 10
137.1718629613356
 20
282.0394577208035
 30
0.0
 11
134.9839049613356
 21
280.7762277208037
 31
0.0
1001
PHOENIX7010
1002
{
1070
    41
1040
0.5
1002
}
  0
LINE
  5
22CA
330
1A
100
AcDbEntity
  8
0
 62
     5
100
AcDbLine
 10
134.9471309613354
 20
283.3239577208037
 30
0.0
 11
137.1718629613356
 21
282.0394577208035
 31
0.0
1001
PHOENIX7010
1002
{
1070
    41
1040
0.5
1002
}
  0
LINE
  5
22CB
330
1A
100
AcDbEntity
  8
0
 62
     5
100
AcDbLine
 10
134.9839049613356
 20
268.2362197208036
 30
0.0
 11
133.4165529613356
 21
269.7147657208036
 31
0.0
1001
PHOENIX7010
1002
{
1070
    41
1040
0.5
1002
}
  0
LINE
  5
22CC
330
1A
100
AcDbEntity
  8
0
 62
     5
100
AcDbLine
 10
133.4165529613356
 20
282.2547437208036
 30
0.0
 11
133.4165529613356
 21
269.7147657208036
 31
0.0
1001
PHOENIX7010
1002
{
1070
    41
1040
0.5
1002
}
  0
LINE
  5
22CD
330
1A
100
AcDbEntity
  8
0
 62
     5
100
AcDbLine
 10
137.1718629613356
 20
282.0394577208035
 30
0.0
 11
137.1718629613356
 21
269.4994717208037
 31
0.0
1001
PHOENIX7010
1002
{
1070
    41
1040
0.5
1002
}
  0
LINE
  5
22CE
330
1A
100
AcDbEntity
  8
0
 62
     5
100
AcDbLine
 10
134.9839049613356
 20
280.7762277208037
 30
0.0
 11
134.9839049613356
 21
268.2362197208036
 31
0.0
1001
PHOENIX7010
1002
{
1070
    41
1040
0.5
1002
}
  0
LINE
  5
22CF
330
1A
100
AcDbEntity
  8
0
 62
     5
100
AcDbLine
 10
137.1718629613356
 20
269.4994717208037
 30
0.0
 11
134.9839049613356
 21
268.2362197208036
 31
0.0
1001
PHOENIX7010
1002
{
1070
    41
1040
0.5
1002
}
  0
MTEXT
  5
2413
330
1A
100
AcDbEntity
  8
4
  6
Continuous
 62
     5
100
AcDbMText
 10
26.21671606954897
 20
261.2227828698001
 30
0.0
 40
3.5
 41
90.0
 71
     7
 72
     5
  1
ART SV-WB-7038\P(Im Standardlieferumfang/\P{\Q20;in the standard scope of \Pdelivery})
 73
     1
 44
1.0
1001
PHOENIX7010
1002
{
1070
    41
1040
0.5
1070
    62
1070
     7
1002
}
1001
ACAD
1000
MTEXTBEGIN
1070
    73
1070
     1
1070
    44
1040
1.0
1070
    74
1070
     0
1000
MTEXTEND
  0
MTEXT
  5
2416
330
1A
100
AcDbEntity
  8
4
  6
Continuous
 62
     5
100
AcDbMText
 10
34.37901030695116
 20
214.577422622807
 30
0.0
 40
3.5
 41
90.0
 71
     7
 72
     5
  1
{ART SV-HB-7038}
 73
     1
 44
1.0
1001
PHOENIX7010
1002
{
1070
    41
1040
0.5
1070
    62
1070
     7
1002
}
1001
ACAD
1000
MTEXTBEGIN
1070
    73
1070
     1
1070
    44
1040
1.0
1070
    74
1070
     0
1000
MTEXTEND
  0
MTEXT
  5
2417
330
1A
100
AcDbEntity
  8
4
  6
Continuous
 62
     5
100
AcDbMText
 10
34.72498176551994
 20
145.8295576916557
 30
0.0
 40
3.5
 41
90.0
 71
     7
 72
     5
  1
{ART SV-SR-7038}
 73
     1
 44
1.0
1001
PHOENIX7010
1002
{
1070
    41
1040
0.5
1070
    62
1070
     7
1002
}
1001
ACAD
1000
MTEXTBEGIN
1070
    73
1070
     1
1070
    44
1040
1.0
1070
    74
1070
     0
1000
MTEXTEND
  0
INSERT
  5
27E5
102
{ACAD_REACTORS
330
27F0
102
}
330
1A
100
AcDbEntity
  8
0
  6
Continuous
 62
     7
370
    50
100
AcDbBlockReference
  2
PH_GRPBLK
 10
20.0
 20
4.999999999999886
 30
0.0
1001
PHOENIX7010
1002
{
1070
    41
1040
1.0
1002
}
  0
LINE
  5
27E6
102
{ACAD_REACTORS
330
27F0
102
}
330
1A
100
AcDbEntity
  8
0
  6
Continuous
 62
     1
370
    50
100
AcDbLine
 10
1.0
 20
295.9999999999999
 30
0.0
 11
1.0
 21
0.9999999999998863
 31
0.0
1001
PHOENIX7010
1002
{
1070
    62
1070
     1
1070
    41
1040
1.0
1002
}
  0
LINE
  5
27E7
102
{ACAD_REACTORS
330
27F0
102
}
330
1A
100
AcDbEntity
  8
0
  6
Continuous
 62
     1
370
    50
100
AcDbLine
 10
209.0
 20
295.9999999999999
 30
0.0
 11
1.0
 21
295.9999999999999
 31
0.0
1001
PHOENIX7010
1002
{
1070
    62
1070
     1
1070
    41
1040
1.0
1002
}
  0
LINE
  5
27E8
102
{ACAD_REACTORS
330
27F0
102
}
330
1A
100
AcDbEntity
  8
0
  6
Continuous
 62
     1
370
    50
100
AcDbLine
 10
209.0
 20
0.9999999999998863
 30
0.0
 11
209.0
 21
295.9999999999999
 31
0.0
1001
PHOENIX7010
1002
{
1070
    62
1070
     1
1070
    41
1040
1.0
1002
}
  0
LINE
  5
27E9
102
{ACAD_REACTORS
330
27F0
102
}
330
1A
100
AcDbEntity
  8
0
  6
Continuous
 62
     1
370
    50
100
AcDbLine
 10
1.0
 20
0.9999999999998863
 30
0.0
 11
209.0
 21
0.9999999999998863
 31
0.0
1001
PHOENIX7010
1002
{
1070
    62
1070
     1
1070
    41
1040
1.0
1002
}
  0
LINE
  5
27EA
102
{ACAD_REACTORS
330
27F0
102
}
330
1A
100
AcDbEntity
  8
0
  6
Continuous
 62
     3
370
    50
100
AcDbLine
 10
20.0
 20
291.9999999999999
 30
0.0
 11
20.0
 21
4.999999999999886
 31
0.0
1001
PHOENIX7010
1002
{
1070
    62
1070
     3
1070
    41
1040
1.0
1002
}
  0
LINE
  5
27EB
102
{ACAD_REACTORS
330
27F0
102
}
330
1A
100
AcDbEntity
  8
0
  6
Continuous
 62
     3
370
    50
100
AcDbLine
 10
205.0
 20
291.9999999999999
 30
0.0
 11
20.0
 21
291.9999999999999
 31
0.0
1001
PHOENIX7010
1002
{
1070
    62
1070
     3
1070
    41
1040
1.0
1002
}
  0
LINE
  5
27EC
102
{ACAD_REACTORS
330
27F0
102
}
330
1A
100
AcDbEntity
  8
0
  6
Continuous
 62
     3
370
    50
100
AcDbLine
 10
205.0
 20
4.999999999999886
 30
0.0
 11
205.0
 21
291.9999999999999
 31
0.0
1001
PHOENIX7010
1002
{
1070
    62
1070
     3
1070
    41
1040
1.0
1002
}
  0
LINE
  5
27ED
102
{ACAD_REACTORS
330
27F0
102
}
330
1A
100
AcDbEntity
  8
0
  6
Continuous
 62
     3
370
    50
100
AcDbLine
 10
20.0
 20
4.999999999999886
 30
0.0
 11
205.0
 21
4.999999999999886
 31
0.0
1001
PHOENIX7010
1002
{
1070
    62
1070
     3
1070
    41
1040
1.0
1002
}
  0
MTEXT
  5
27EE
102
{ACAD_REACTORS
330
27F0
102
}
330
1A
100
AcDbEntity
  8
0
  6
Continuous
 62
     7
370
    50
100
AcDbMText
 10
19.70248718641096
 20
55.39351207913319
 30
0.0
 40
2.0
 41
0.0
 71
     7
 72
     5
  1
{\T1.1;\C1;"Schutzvermerk nach DIN ISO 16016 beachten" \Q20;"Please pay attention to copyright note DIN ISO 16016"}
 11
0.0000000000000002
 21
1.0
 31
0.0
 73
     1
 44
1.0
1001
PHOENIX7010
1002
{
1070
    41
1040
1.0
1002
}
1001
ACAD
1000
MTEXTBEGIN
1070
    73
1070
     1
1070
    44
1040
1.0
1070
    74
1070
     0
1000
MTEXTEND
  0
HATCH
  5
286C
102
{ACAD_REACTORS
330
28C0
102
}
330
1A
100
AcDbEntity
  8
0
  6
Continuous
 62
     1
370
    25
100
AcDbHatch
 10
0.0
 20
0.0
 30
0.0
210
0.0
220
0.0
230
1.0
  2
_U
 70
     0
 71
     1
 91
        1
 92
        0
 93
        5
 72
     1
 10
197.4334749940256
 20
35.16453811398026
 11
190.7334749940256
 21
27.36453811398019
 72
     1
 10
190.7334749940255
 20
27.36453811398019
 11
202.7334749940255
 21
27.36453811398019
 72
     1
 10
202.7334749940255
 20
27.36453811398019
 11
202.7334749940256
 21
35.1645381139802
 72
     1
 10
202.7334749940255
 20
35.16453811398014
 11
197.4334749940255
 21
28.26453811398025
 72
     1
 10
197.4334749940256
 20
28.26453811398028
 11
197.4334749940255
 21
35.16453811398026
 97
        1
330
28B0
 75
     0
 76
     0
 52
45.0
 41
0.1
 77
     0
 78
     1
 53
45.0
 43
-210.0
 44
-32.08885297207075
 45
-0.0707106781186548
 46
0.0707106781186548
 79
     0
 98
        1
 10
-210.0
 20
-32.08885297207075
1001
PHOENIX7010
1002
{
1070
    41
1040
1.0
1002
}
  0
HATCH
  5
286D
102
{ACAD_REACTORS
330
28C0
102
}
330
1A
100
AcDbEntity
  8
0
  6
Continuous
 62
     1
370
    25
100
AcDbHatch
 10
0.0
 20
0.0
 30
0.0
210
0.0
220
0.0
230
1.0
  2
_U
 70
     0
 71
     1
 91
        1
 92
        0
 93
        3
 72
     1
 10
189.8834749940255
 20
27.36453811398019
 11
189.8834749940255
 21
31.51453811398019
 72
     1
 10
189.8834749940255
 20
31.51453811398017
 11
194.0334749940254
 21
31.51453811398017
 72
     2
 10
189.8834749940255
 20
31.51453811398017
 40
4.149999999999977
 50
0.0000000000001962
 51
270.0
 73
     1
 97
        1
330
28B1
 75
     0
 76
     0
 52
45.0
 41
0.65
 77
     0
 78
     1
 53
45.0
 43
-210.0
 44
-32.08885297207075
 45
-0.4596194077712559
 46
0.459619407771256
 79
     0
 98
        1
 10
-210.0
 20
-32.08885297207075
1001
PHOENIX7010
1002
{
1070
    41
1040
1.0
1002
}
  0
LINE
  5
286E
102
{ACAD_REACTORS
330
28C0
102
}
330
1A
100
AcDbEntity
  8
0
  6
Continuous
 62
     7
370
    50
100
AcDbLine
 10
190.7334749940255
 20
27.36453811398019
 30
0.0
 11
202.7334749940255
 21
27.36453811398019
 31
0.0
1001
PHOENIX7010
1002
{
1070
    41
1040
1.0
1002
}
  0
LINE
  5
286F
102
{ACAD_REACTORS
330
28C0
102
}
330
1A
100
AcDbEntity
  8
0
  6
Continuous
 62
     7
370
    50
100
AcDbLine
 10
202.7334749940255
 20
27.36453811398019
 30
0.0
 11
202.7334749940255
 21
35.16453811398014
 31
0.0
1001
PHOENIX7010
1002
{
1070
    41
1040
1.0
1002
}
  0
LINE
  5
2870
102
{ACAD_REACTORS
330
28C0
102
}
330
1A
100
AcDbEntity
  8
0
  6
Continuous
 62
     7
370
    50
100
AcDbLine
 10
197.4334749940256
 20
28.26453811398017
 30
0.0
 11
197.4334749940256
 21
35.16453811398014
 31
0.0
1001
PHOENIX7010
1002
{
1070
    41
1040
1.0
1002
}
  0
LINE
  5
2871
102
{ACAD_REACTORS
330
28C0
102
}
330
1A
100
AcDbEntity
  8
0
  6
Continuous
 62
     7
370
    50
100
AcDbLine
 10
197.4334749940256
 20
35.16453811398014
 30
0.0
 11
190.7334749940255
 21
27.36453811398019
 31
0.0
1001
PHOENIX7010
1002
{
1070
    41
1040
1.0
1002
}
  0
LINE
  5
2872
102
{ACAD_REACTORS
330
28C0
102
}
330
1A
100
AcDbEntity
  8
0
  6
Continuous
 62
     7
370
    50
100
AcDbLine
 10
202.7334749940255
 20
35.16453811398014
 30
0.0
 11
197.4334749940256
 21
28.26453811398017
 31
0.0
1001
PHOENIX7010
1002
{
1070
    41
1040
1.0
1002
}
  0
INSERT
  5
2873
102
{ACAD_REACTORS
330
28C0
102
}
330
1A
100
AcDbEntity
  8
0
  6
Continuous
 62
     1
370
    25
100
AcDbBlockReference
  2
PH_GRPBLK
 10
190.7334749940255
 20
27.36453811398019
 30
0.0
1001
PHOENIX7010
1002
{
1070
    41
1040
1.0
1002
}
  0
MTEXT
  5
2874
102
{ACAD_REACTORS
330
28C1
102
}
330
1A
100
AcDbEntity
  8
0
  6
Continuous
 62
     7
370
    50
100
AcDbMText
 10
171.0842366554657
 20
17.8834606000313
 30
0.0
 40
1.6
 41
0.0
 71
     7
 72
     5
  1
{\fArial|b0|i0|c0|p34;\W1.1;\C1;A Phoenix Mecano Company}
 73
     1
 44
1.0
1001
PHOENIX7010
1002
{
1070
    41
1040
1.0
1002
}
1001
ACAD
1000
MTEXTBEGIN
1070
    73
1070
     1
1070
    44
1040
1.0
1070
    74
1070
     0
1000
MTEXTEND
  0
MTEXT
  5
2875
102
{ACAD_XDICTIONARY
360
2946
102
}
102
{ACAD_REACTORS
330
28C1
102
}
330
1A
100
AcDbEntity
  8
0
  6
Continuous
 62
     7
370
    50
100
AcDbMText
 10
183.5658807175857
 20
21.46517927327716
 30
0.0
 40
3.7
 41
0.0
 71
     7
 72
     5
  1
{\fArial|b1|i0|c0|p34;\W1.1;BOPLA}
 73
     1
 44
1.135135135135135
1001
PHOENIX7010
1002
{
1070
    41
1040
1.0
1002
}
1001
ACAD
1000
MTEXTBEGIN
1070
    73
1070
     1
1070
    44
1040
1.135135135135135
1070
    74
1070
     0
1000
MTEXTEND
  0
INSERT
  5
2876
102
{ACAD_REACTORS
330
28C1
102
}
330
1A
100
AcDbEntity
  8
0
  6
Continuous
 62
     7
370
    50
100
AcDbBlockReference
  2
PH_GRPBLK
 10
190.7334749940255
 20
27.36453811398019
 30
0.0
1001
PHOENIX7010
1002
{
1070
    41
1040
1.0
1002
}
  0
MTEXT
  5
2877
102
{ACAD_REACTORS
330
28C2
102
}
330
1A
100
AcDbEntity
  8
0
  6
Continuous
 62
     5
370
    35
100
AcDbMText
 10
108.9304981780733
 20
52.18090043987103
 30
0.0
 40
4.0
 41
0.0
 71
     7
 72
     5
  1
{\Q20;\C7;Catalogue drawing}
 73
     1
 44
1.0
1001
PHOENIX7010
1002
{
1070
    41
1040
1.0
1002
}
1001
ACAD
1000
MTEXTBEGIN
1070
    73
1070
     1
1070
    44
1040
1.0
1070
    74
1070
     0
1000
MTEXTEND
  0
MTEXT
  5
2878
102
{ACAD_REACTORS
330
28C2
102
}
330
1A
100
AcDbEntity
  8
0
  6
Continuous
 62
     5
370
    35
100
AcDbMText
 10
108.9304981780733
 20
59.18090043987104
 30
0.0
 40
4.0
 41
0.0
 71
     7
 72
     5
  1
{\C7;Katalogzeichnung/}
 73
     1
 44
1.0
1001
PHOENIX7010
1002
{
1070
    41
1040
1.0
1002
}
1001
ACAD
1000
MTEXTBEGIN
1070
    73
1070
     1
1070
    44
1040
1.0
1070
    74
1070
     0
1000
MTEXTEND
  0
MTEXT
  5
2879
102
{ACAD_REACTORS
330
28C2
102
}
330
1A
100
AcDbEntity
  8
0
  6
Continuous
 62
     5
370
    35
100
AcDbMText
 10
108.9304981780733
 20
66.18090043987104
 30
0.0
 40
4.0
 41
0.0
 71
     7
 72
     5
  1
{\C7;ARTEB ART SV-..-7038}
 73
     1
 44
1.0
1001
PHOENIX7010
1002
{
1070
    41
1040
1.0
1002
}
1001
ACAD
1000
MTEXTBEGIN
1070
    73
1070
     1
1070
    44
1040
1.0
1070
    74
1070
     0
1000
MTEXTEND
  0
MTEXT
  5
287A
102
{ACAD_REACTORS
330
28C2
102
}
330
1A
100
AcDbEntity
  8
0
  6
Continuous
 62
     5
370
    35
100
AcDbMText
 10
130.3074630969179
 20
95.19875800682347
 30
0.0
 40
4.0
 41
0.0
 71
     7
 72
     5
  1
{\C7;-}
 73
     1
 44
1.0
1001
PHOENIX7010
1002
{
1070
    41
1040
1.0
1002
}
1001
ACAD
1000
MTEXTBEGIN
1070
    73
1070
     1
1070
    44
1040
1.0
1070
    74
1070
     0
1000
MTEXTEND
  0
MTEXT
  5
287B
102
{ACAD_REACTORS
330
28C2
102
}
330
1A
100
AcDbEntity
  8
0
  6
Continuous
 62
     5
370
    35
100
AcDbMText
 10
109.2942762589885
 20
94.24669079255091
 30
0.0
 40
2.5
 41
0.0
 71
     7
 72
     5
  1
{\C1;Maßstab/\P\Q20;Scale:}
 73
     1
 44
1.0
1001
PHOENIX7010
1002
{
1070
    41
1040
1.0
1002
}
1001
ACAD
1000
MTEXTBEGIN
1070
    73
1070
     1
1070
    44
1040
1.0
1070
    74
1070
     0
1000
MTEXTEND
  0
MTEXT
  5
287C
102
{ACAD_REACTORS
330
28C2
102
}
330
1A
100
AcDbEntity
  8
0
  6
Continuous
 62
     5
370
    35
100
AcDbMText
 10
109.5702130763932
 20
86.57846179300577
 30
0.0
 40
3.0
 41
0.0
 71
     7
 72
     5
  1
Zeichnungs-Nr. / {\Q20;Drawing-No.:}
 73
     1
 44
1.0
1001
PHOENIX7010
1002
{
1070
    41
1040
1.0
1002
}
1001
ACAD
1000
MTEXTBEGIN
1070
    73
1070
     1
1070
    44
1040
1.0
1070
    74
1070
     0
1000
MTEXTEND
  0
MTEXT
  5
287D
102
{ACAD_REACTORS
330
28C2
102
}
330
1A
100
AcDbEntity
  8
0
  6
Continuous
 62
     5
370
    35
100
AcDbMText
 10
130.6810942169352
 20
80.43630467405547
 30
0.0
 40
4.0
 41
0.0
 71
     7
 72
     5
  1
{\C7;4K 5300.193.01}
 73
     1
 44
1.0
1001
PHOENIX7010
1002
{
1070
    41
1040
1.0
1002
}
1001
ACAD
1000
MTEXTBEGIN
1070
    73
1070
     1
1070
    44
1040
1.0
1070
    74
1070
     0
1000
MTEXTEND
  0
MTEXT
  5
287E
102
{ACAD_REACTORS
330
28C2
102
}
330
1A
100
AcDbEntity
  8
0
  6
Continuous
 62
     5
370
    35
100
AcDbMText
 10
108.8800602381664
 20
72.4289616716369
 30
0.0
 40
4.0
 41
0.0
 71
     7
 72
     5
  1
{\C7;Artikel / \Q20;Article:}
 73
     1
 44
1.0
1001
PHOENIX7010
1002
{
1070
    41
1040
1.0
1002
}
1001
ACAD
1000
MTEXTBEGIN
1070
    73
1070
     1
1070
    44
1040
1.0
1070
    74
1070
     0
1000
MTEXTEND
  0
MTEXT
  5
287F
102
{ACAD_REACTORS
330
28C2
102
}
330
1A
100
AcDbEntity
  8
0
  6
Continuous
 62
     5
370
    35
100
AcDbMText
 10
119.5918340418986
 20
15.32304279191066
 30
0.0
 40
2.0
 41
0.0
 71
     7
 72
     5
  1
{\C1;Datum/\P\Q20;Date:}
 73
     1
 44
1.0
1001
PHOENIX7010
1002
{
1070
    41
1040
1.0
1002
}
1001
ACAD
1000
MTEXTBEGIN
1070
    73
1070
     1
1070
    44
1040
1.0
1070
    74
1070
     0
1000
MTEXTEND
  0
MTEXT
  5
2880
102
{ACAD_REACTORS
330
28C2
102
}
330
1A
100
AcDbEntity
  8
0
  6
Continuous
 62
     5
370
    35
100
AcDbMText
 10
106.167758256943
 20
15.32303913053602
 30
0.0
 40
2.0
 41
0.0
 71
     7
 72
     5
  1
{\C1;Ä.Nr/\P\Q20;Alt-No.:}
 73
     1
 44
1.0
1001
PHOENIX7010
1002
{
1070
    41
1040
1.0
1002
}
1001
ACAD
1000
MTEXTBEGIN
1070
    73
1070
     1
1070
    44
1040
1.0
1070
    74
1070
     0
1000
MTEXTEND
  0
MTEXT
  5
2881
102
{ACAD_REACTORS
330
28C2
102
}
330
1A
100
AcDbEntity
  8
0
  6
Continuous
 62
     5
370
    35
100
AcDbMText
 10
132.2178658257173
 20
10.60592166613912
 30
0.0
 40
2.5
 41
0.0
 71
     7
 72
     5
  1
2 801 681
 73
     1
 44
1.0
1001
PHOENIX7010
1002
{
1070
    41
1040
1.0
1002
}
1001
ACAD
1000
MTEXTBEGIN
1070
    73
1070
     1
1070
    44
1040
1.0
1070
    74
1070
     0
1000
MTEXTEND
  0
MTEXT
  5
2882
102
{ACAD_REACTORS
330
28C2
102
}
330
1A
100
AcDbEntity
  8
0
  6
Continuous
 62
     5
370
    35
100
AcDbMText
 10
106.5289912646938
 20
10.49475527098093
 30
0.0
 40
2.5
 41
0.0
 71
     7
 72
     5
  1
DISK:
 73
     1
 44
1.0
1001
PHOENIX7010
1002
{
1070
    41
1040
1.0
1002
}
1001
ACAD
1000
MTEXTBEGIN
1070
    73
1070
     1
1070
    44
1040
1.0
1070
    74
1070
     0
1000
MTEXTEND
  0
MTEXT
  5
2883
102
{ACAD_REACTORS
330
28C2
102
}
330
1A
100
AcDbEntity
  8
0
  6
Continuous
 62
     5
370
    35
100
AcDbMText
 10
132.2178658257173
 20
6.248887523187477
 30
0.0
 40
2.5
 41
0.0
 71
     7
 72
     5
  1
09.09.98 HR
 73
     1
 44
1.0
1001
PHOENIX7010
1002
{
1070
    41
1040
1.0
1002
}
1001
ACAD
1000
MTEXTBEGIN
1070
    73
1070
     1
1070
    44
1040
1.0
1070
    74
1070
     0
1000
MTEXTEND
  0
MTEXT
  5
2884
102
{ACAD_REACTORS
330
28C2
102
}
330
1A
100
AcDbEntity
  8
0
  6
Continuous
 62
     5
370
    35
100
AcDbMText
 10
106.5289912646938
 20
6.248887523187477
 30
0.0
 40
2.5
 41
0.0
 71
     7
 72
     5
  1
Datum/{\Q20;Date:}
 73
     1
 44
1.0
1001
PHOENIX7010
1002
{
1070
    41
1040
1.0
1002
}
1001
ACAD
1000
MTEXTBEGIN
1070
    73
1070
     1
1070
    44
1040
1.0
1070
    74
1070
     0
1000
MTEXTEND
  0
LINE
  5
2885
102
{ACAD_REACTORS
330
28C2
102
}
330
1A
100
AcDbEntity
  8
0
  6
Continuous
 62
     5
370
    35
100
AcDbLine
 10
104.9999999999998
 20
14.5
 30
0.0
 11
205.0
 21
14.5
 31
0.0
1001
PHOENIX7010
1002
{
1070
    41
1040
1.0
1002
}
  0
LINE
  5
2886
102
{ACAD_REACTORS
330
28C2
102
}
330
1A
100
AcDbEntity
  8
0
  6
Continuous
 62
     5
100
AcDbLine
 10
195.4999999999998
 20
92.49999999999989
 30
0.0
 11
195.4999999999998
 21
99.49999999999988
 31
0.0
1001
PHOENIX7010
1002
{
1070
    62
1070
     5
1070
    41
1040
1.0
1002
}
  0
LINE
  5
2887
102
{ACAD_REACTORS
330
28C2
102
}
330
1A
100
AcDbEntity
  8
0
  6
ACAD_ISO04W100
 62
     1
 48
0.1451612903225806
100
AcDbLine
 10
200.4999999999998
 20
91.49999999999989
 30
0.0
 11
200.4999999999998
 21
100.4999999999999
 31
0.0
1001
PHOENIX7010
1002
{
1070
    62
1070
     1
1070
    41
1040
1.0
1002
}
  0
CIRCLE
  5
2888
102
{ACAD_REACTORS
330
28C2
102
}
330
1A
100
AcDbEntity
  8
0
  6
Continuous
 62
     5
100
AcDbCircle
 10
200.4999999999998
 20
95.99999999999988
 30
0.0
 40
1.75
1001
PHOENIX7010
1002
{
1070
    62
1070
     5
1070
    41
1040
1.0
1002
}
  0
CIRCLE
  5
2889
102
{ACAD_REACTORS
330
28C2
102
}
330
1A
100
AcDbEntity
  8
0
  6
Continuous
 62
     5
100
AcDbCircle
 10
200.4999999999998
 20
95.99999999999988
 30
0.0
 40
3.5
1001
PHOENIX7010
1002
{
1070
    62
1070
     5
1070
    41
1040
1.0
1002
}
  0
LINE
  5
288A
102
{ACAD_REACTORS
330
28C2
102
}
330
1A
100
AcDbEntity
  8
0
  6
Continuous
 62
     5
100
AcDbLine
 10
188.4999999999998
 20
94.24999999999988
 30
0.0
 11
188.4999999999998
 21
97.74999999999989
 31
0.0
1001
PHOENIX7010
1002
{
1070
    62
1070
     5
1070
    41
1040
1.0
1002
}
  0
LINE
  5
288B
102
{ACAD_REACTORS
330
28C2
102
}
330
1A
100
AcDbEntity
  8
0
  6
ACAD_ISO04W100
 62
     1
 48
0.282258064516129
100
AcDbLine
 10
204.9999999999998
 20
95.99999999999988
 30
0.0
 11
187.4999999999998
 21
95.99999999999988
 31
0.0
1001
PHOENIX7010
1002
{
1070
    62
1070
     1
1070
    41
1040
1.0
1002
}
  0
LINE
  5
288C
102
{ACAD_REACTORS
330
28C2
102
}
330
1A
100
AcDbEntity
  8
0
  6
Continuous
 62
     5
100
AcDbLine
 10
195.4999999999998
 20
92.49999999999989
 30
0.0
 11
188.4999999999998
 21
94.24999999999988
 31
0.0
1001
PHOENIX7010
1002
{
1070
    62
1070
     5
1070
    41
1040
1.0
1002
}
  0
LINE
  5
288D
102
{ACAD_REACTORS
330
28C2
102
}
330
1A
100
AcDbEntity
  8
0
  6
Continuous
 62
     5
100
AcDbLine
 10
195.4999999999998
 20
99.49999999999988
 30
0.0
 11
188.4999999999998
 21
97.74999999999989
 31
0.0
1001
PHOENIX7010
1002
{
1070
    62
1070
     5
1070
    41
1040
1.0
1002
}
  0
ARC
  5
288E
102
{ACAD_REACTORS
330
28C2
102
}
330
1A
100
AcDbEntity
  8
0
  6
Continuous
 62
     5
100
AcDbCircle
 10
107.4999999999997
 20
88.99999999999989
 30
0.0
 40
2.5
100
AcDbArc
 50
90.0
 51
180.0
1001
PHOENIX7010
1002
{
1070
    62
1070
     5
1070
    41
1040
1.0
1002
}
  0
ARC
  5
288F
102
{ACAD_REACTORS
330
28C2
102
}
330
1A
100
AcDbEntity
  8
0
  6
Continuous
 62
     5
100
AcDbCircle
 10
107.4999999999997
 20
99.99999999999989
 30
0.0
 40
2.5
100
AcDbArc
 50
90.0
 51
180.0
1001
PHOENIX7010
1002
{
1070
    62
1070
     5
1070
    41
1040
1.0
1002
}
  0
LINE
  5
2890
102
{ACAD_REACTORS
330
28C2
102
}
330
1A
100
AcDbEntity
  8
0
  6
Continuous
 62
     5
100
AcDbLine
 10
205.0
 20
91.49999999999989
 30
0.0
 11
107.4999999999997
 21
91.49999999999989
 31
0.0
1001
PHOENIX7010
1002
{
1070
    62
1070
     5
1070
    41
1040
1.0
1002
}
  0
LINE
  5
2891
102
{ACAD_REACTORS
330
28C2
102
}
330
1A
100
AcDbEntity
  8
0
  6
Continuous
 62
     5
100
AcDbLine
 10
205.0
 20
102.4999999999999
 30
0.0
 11
107.4999999999997
 21
102.4999999999999
 31
0.0
1001
PHOENIX7010
1002
{
1070
    62
1070
     5
1070
    41
1040
1.0
1002
}
  0
LINE
  5
2892
102
{ACAD_REACTORS
330
28C2
102
}
330
1A
100
AcDbEntity
  8
0
  6
Continuous
 62
     5
100
AcDbLine
 10
140.0
 20
48.0
 30
0.0
 11
140.0
 21
14.5
 31
0.0
1001
PHOENIX7010
1002
{
1070
    62
1070
     5
1070
    41
1040
1.0
1002
}
  0
TEXT
  5
2893
102
{ACAD_REACTORS
330
28C2
102
}
330
1A
100
AcDbEntity
  8
0
  6
Continuous
 62
     1
100
AcDbText
 10
118.9999996997324
 20
42.74999981501344
 30
0.0
 40
2.0
  1
-
 41
1.5
100
AcDbText
1001
PHOENIX7010
1002
{
1070
    62
1070
     1
1070
    41
1040
1.0
1002
}
  0
TEXT
  5
2894
102
{ACAD_REACTORS
330
28C2
102
}
330
1A
100
AcDbEntity
  8
0
  6
Continuous
 62
     1
100
AcDbText
 10
118.9999996997324
 20
40.24999981501344
 30
0.0
 40
2.0
  1
-
 41
1.5
100
AcDbText
1001
PHOENIX7010
1002
{
1070
    62
1070
     1
1070
    41
1040
1.0
1002
}
  0
TEXT
  5
2895
102
{ACAD_REACTORS
330
28C2
102
}
330
1A
100
AcDbEntity
  8
0
  6
Continuous
 62
     1
100
AcDbText
 10
118.9999996997324
 20
45.24999981501344
 30
0.0
 40
2.0
  1
-
 41
1.5
100
AcDbText
1001
PHOENIX7010
1002
{
1070
    62
1070
     1
1070
    41
1040
1.0
1002
}
  0
TEXT
  5
2896
102
{ACAD_REACTORS
330
28C2
102
}
330
1A
100
AcDbEntity
  8
0
  6
Continuous
 62
     1
100
AcDbText
 10
105.9999996997323
 20
42.74999981501344
 30
0.0
 40
2.0
  1
-
 41
1.5
100
AcDbText
1001
PHOENIX7010
1002
{
1070
    62
1070
     1
1070
    41
1040
1.0
1002
}
  0
TEXT
  5
2897
102
{ACAD_REACTORS
330
28C2
102
}
330
1A
100
AcDbEntity
  8
0
  6
Continuous
 62
     1
100
AcDbText
 10
105.9999996997323
 20
40.24999981501344
 30
0.0
 40
2.0
  1
-
 41
1.5
100
AcDbText
1001
PHOENIX7010
1002
{
1070
    62
1070
     1
1070
    41
1040
1.0
1002
}
  0
TEXT
  5
2898
102
{ACAD_REACTORS
330
28C2
102
}
330
1A
100
AcDbEntity
  8
0
  6
Continuous
 62
     1
100
AcDbText
 10
105.9999996997323
 20
45.24999981501344
 30
0.0
 40
2.0
  1
-
 41
1.5
100
AcDbText
1001
PHOENIX7010
1002
{
1070
    62
1070
     1
1070
    41
1040
1.0
1002
}
  0
ARC
  5
2899
102
{ACAD_REACTORS
330
28C2
102
}
330
1A
100
AcDbEntity
  8
0
  6
Continuous
 62
     5
100
AcDbCircle
 10
107.4999999999997
 20
45.49999999999999
 30
0.0
 40
2.5
100
AcDbArc
 50
90.0
 51
180.0
1001
PHOENIX7010
1002
{
1070
    62
1070
     5
1070
    41
1040
1.0
1002
}
  0
ARC
  5
289A
102
{ACAD_REACTORS
330
28C2
102
}
330
1A
100
AcDbEntity
  8
0
  6
Continuous
 62
     5
100
AcDbCircle
 10
107.4999999999997
 20
76.0
 30
0.0
 40
2.5
100
AcDbArc
 50
90.0
 51
180.0
1001
PHOENIX7010
1002
{
1070
    62
1070
     5
1070
    41
1040
1.0
1002
}
  0
TEXT
  5
289B
102
{ACAD_REACTORS
330
28C2
102
}
330
1A
100
AcDbEntity
  8
0
  6
Continuous
 62
     1
100
AcDbText
 10
118.9999996997324
 20
25.24999981501344
 30
0.0
 40
2.0
  1
-
 41
1.5
100
AcDbText
1001
PHOENIX7010
1002
{
1070
    62
1070
     1
1070
    41
1040
1.0
1002
}
  0
TEXT
  5
289C
102
{ACAD_REACTORS
330
28C2
102
}
330
1A
100
AcDbEntity
  8
0
  6
Continuous
 62
     1
100
AcDbText
 10
118.9999996997324
 20
22.74999981501344
 30
0.0
 40
2.0
  1
-
 41
1.5
100
AcDbText
1001
PHOENIX7010
1002
{
1070
    62
1070
     1
1070
    41
1040
1.0
1002
}
  0
TEXT
  5
289D
102
{ACAD_REACTORS
330
28C2
102
}
330
1A
100
AcDbEntity
  8
0
  6
Continuous
 62
     1
100
AcDbText
 10
118.9999996997324
 20
30.24999981501344
 30
0.0
 40
2.0
  1
-
 41
1.5
100
AcDbText
1001
PHOENIX7010
1002
{
1070
    62
1070
     1
1070
    41
1040
1.0
1002
}
  0
TEXT
  5
289E
102
{ACAD_REACTORS
330
28C2
102
}
330
1A
100
AcDbEntity
  8
0
  6
Continuous
 62
     1
100
AcDbText
 10
118.9999996997324
 20
27.74999981501344
 30
0.0
 40
2.0
  1
-
 41
1.5
100
AcDbText
1001
PHOENIX7010
1002
{
1070
    62
1070
     1
1070
    41
1040
1.0
1002
}
  0
TEXT
  5
289F
102
{ACAD_REACTORS
330
28C2
102
}
330
1A
100
AcDbEntity
  8
0
  6
Continuous
 62
     1
100
AcDbText
 10
118.9999996997324
 20
32.74999981501344
 30
0.0
 40
2.0
  1
-
 41
1.5
100
AcDbText
1001
PHOENIX7010
1002
{
1070
    62
1070
     1
1070
    41
1040
1.0
1002
}
  0
TEXT
  5
28A0
102
{ACAD_REACTORS
330
28C2
102
}
330
1A
100
AcDbEntity
  8
0
  6
Continuous
 62
     1
100
AcDbText
 10
118.9999996997324
 20
35.24999981501344
 30
0.0
 40
2.0
  1
-
 41
1.5
100
AcDbText
1001
PHOENIX7010
1002
{
1070
    62
1070
     1
1070
    41
1040
1.0
1002
}
  0
TEXT
  5
28A1
102
{ACAD_REACTORS
330
28C2
102
}
330
1A
100
AcDbEntity
  8
0
  6
Continuous
 62
     1
100
AcDbText
 10
118.9999996997324
 20
37.74999981501344
 30
0.0
 40
2.0
  1
-
 41
1.5
100
AcDbText
1001
PHOENIX7010
1002
{
1070
    62
1070
     1
1070
    41
1040
1.0
1002
}
  0
TEXT
  5
28A2
102
{ACAD_REACTORS
330
28C2
102
}
330
1A
100
AcDbEntity
  8
0
  6
Continuous
 62
     1
100
AcDbText
 10
105.9999996997323
 20
25.24999981501344
 30
0.0
 40
2.0
  1
-
 41
1.5
100
AcDbText
1001
PHOENIX7010
1002
{
1070
    62
1070
     1
1070
    41
1040
1.0
1002
}
  0
TEXT
  5
28A3
102
{ACAD_REACTORS
330
28C2
102
}
330
1A
100
AcDbEntity
  8
0
  6
Continuous
 62
     1
100
AcDbText
 10
105.9999996997323
 20
22.74999981501344
 30
0.0
 40
2.0
  1
-
 41
1.5
100
AcDbText
1001
PHOENIX7010
1002
{
1070
    62
1070
     1
1070
    41
1040
1.0
1002
}
  0
TEXT
  5
28A4
102
{ACAD_REACTORS
330
28C2
102
}
330
1A
100
AcDbEntity
  8
0
  6
Continuous
 62
     1
100
AcDbText
 10
105.9999996997323
 20
30.24999981501344
 30
0.0
 40
2.0
  1
-
 41
1.5
100
AcDbText
1001
PHOENIX7010
1002
{
1070
    62
1070
     1
1070
    41
1040
1.0
1002
}
  0
TEXT
  5
28A5
102
{ACAD_REACTORS
330
28C2
102
}
330
1A
100
AcDbEntity
  8
0
  6
Continuous
 62
     1
100
AcDbText
 10
105.9999996997323
 20
27.74999981501344
 30
0.0
 40
2.0
  1
-
 41
1.5
100
AcDbText
1001
PHOENIX7010
1002
{
1070
    62
1070
     1
1070
    41
1040
1.0
1002
}
  0
TEXT
  5
28A6
102
{ACAD_REACTORS
330
28C2
102
}
330
1A
100
AcDbEntity
  8
0
  6
Continuous
 62
     1
100
AcDbText
 10
105.9999996997323
 20
32.74999981501344
 30
0.0
 40
2.0
  1
-
 41
1.5
100
AcDbText
1001
PHOENIX7010
1002
{
1070
    62
1070
     1
1070
    41
1040
1.0
1002
}
  0
TEXT
  5
28A7
102
{ACAD_REACTORS
330
28C2
102
}
330
1A
100
AcDbEntity
  8
0
  6
Continuous
 62
     1
100
AcDbText
 10
105.9999996997323
 20
35.24999981501344
 30
0.0
 40
2.0
  1
-
 41
1.5
100
AcDbText
1001
PHOENIX7010
1002
{
1070
    62
1070
     1
1070
    41
1040
1.0
1002
}
  0
TEXT
  5
28A8
102
{ACAD_REACTORS
330
28C2
102
}
330
1A
100
AcDbEntity
  8
0
  6
Continuous
 62
     1
100
AcDbText
 10
105.9999996997323
 20
37.74999981501344
 30
0.0
 40
2.0
  1
-
 41
1.5
100
AcDbText
1001
PHOENIX7010
1002
{
1070
    62
1070
     1
1070
    41
1040
1.0
1002
}
  0
LINE
  5
28A9
102
{ACAD_REACTORS
330
28C2
102
}
330
1A
100
AcDbEntity
  8
0
  6
Continuous
 62
     1
100
AcDbLine
 10
117.9999999999997
 20
48.0
 30
0.0
 11
117.9999999999997
 21
14.5
 31
0.0
1001
PHOENIX7010
1002
{
1070
    62
1070
     1
1070
    41
1040
1.0
1002
}
  0
LINE
  5
28AA
102
{ACAD_REACTORS
330
28C2
102
}
330
1A
100
AcDbEntity
  8
0
  6
Continuous
 62
     1
100
AcDbLine
 10
104.9999999999998
 20
21.5
 30
0.0
 11
140.0
 21
21.5
 31
0.0
1001
PHOENIX7010
1002
{
1070
    62
1070
     1
1070
    41
1040
1.0
1002
}
  0
LINE
  5
28AB
102
{ACAD_REACTORS
330
28C2
102
}
330
1A
100
AcDbEntity
  8
0
  6
Continuous
 62
     5
100
AcDbLine
 10
205.0
 20
78.5
 30
0.0
 11
107.4999999999997
 21
78.5
 31
0.0
1001
PHOENIX7010
1002
{
1070
    62
1070
     5
1070
    41
1040
1.0
1002
}
  0
LINE
  5
28AC
102
{ACAD_REACTORS
330
28C2
102
}
330
1A
100
AcDbEntity
  8
0
  6
Continuous
 62
     5
100
AcDbLine
 10
205.0
 20
48.0
 30
0.0
 11
107.4999999999997
 21
48.0
 31
0.0
1001
PHOENIX7010
1002
{
1070
    62
1070
     5
1070
    41
1040
1.0
1002
}
  0
LINE
  5
28AD
102
{ACAD_REACTORS
330
28C2
102
}
330
1A
100
AcDbEntity
  8
0
  6
Continuous
 62
     5
100
AcDbLine
 10
104.9999999999998
 20
99.99999999999989
 30
0.0
 11
104.9999999999998
 21
5.0
 31
0.0
1001
PHOENIX7010
1002
{
1070
    62
1070
     5
1070
    41
1040
1.0
1002
}
  0
INSERT
  5
28AE
102
{ACAD_REACTORS
330
28C2
102
}
330
1A
100
AcDbEntity
  8
0
  6
Continuous
 62
     5
370
    35
100
AcDbBlockReference
  2
PH_GRPBLK
 10
104.9999999999998
 20
14.5
 30
0.0
1001
PHOENIX7010
1002
{
1070
    41
1040
1.0
1002
}
  0
LWPOLYLINE
  5
28B0
102
{ACAD_REACTORS
330
286C
102
}
330
1A
100
AcDbEntity
  8
0
  6
Continuous
 62
     7
 60
     1
370
    50
100
AcDbPolyline
 90
        5
 70
     1
 43
0.0
 10
197.4334749940256
 20
35.16453811398026
 10
190.7334749940255
 20
27.36453811398019
 10
202.7334749940255
 20
27.36453811398019
 10
202.7334749940255
 20
35.16453811398014
 10
197.4334749940256
 20
28.26453811398028
1001
PHOENIX7010
1002
{
1070
    41
1040
1.0
1002
}
  0
LWPOLYLINE
  5
28B1
102
{ACAD_REACTORS
330
286D
102
}
330
1A
100
AcDbEntity
  8
0
  6
Continuous
 62
     7
 60
     1
370
    50
100
AcDbPolyline
 90
        3
 70
     1
 43
0.0
 10
189.8834749940255
 20
27.36453811398019
 10
189.8834749940255
 20
31.51453811398017
 10
194.0334749940254
 20
31.51453811398017
 42
2.414213562373094
1001
PHOENIX7010
1002
{
1070
    41
1040
1.0
1002
}
  0
ENDSEC
  0
SECTION
  2
OBJECTS
  0
DICTIONARY
  5
C
330
0
100
AcDbDictionary
281
     1
  3
ACAD_COLOR
350
27B4
  3
ACAD_GROUP
350
D
  3
ACAD_LAYOUT
350
27DB
  3
ACAD_MATERIAL
350
2787
  3
ACAD_MLEADERSTYLE
350
27D9
  3
ACAD_MLINESTYLE
350
E
  3
ACAD_PLOTSETTINGS
350
27DC
  3
ACAD_PLOTSTYLENAME
350
2785
  3
ACAD_SCALELIST
350
27B7
  3
ACAD_TABLESTYLE
350
27B5
  3
ACAD_VISUALSTYLE
350
27A0
  3
ACASAPPOBJECT
350
D4
  3
ACASGREF_MASTER
350
84
  3
ACCELVIEW
350
DA
  3
ACDB_RECOMPOSE_DATA
350
2948
  3
AcDbVariableDictionary
350
2928
  3
ACDMSYSVARMGR
350
A0
  3
ACGREF_MASTER
350
82
  3
ACME_COMMAND_HISTORY
350
80
  3
ACME_SCOPE_NAME
350
7F
  3
AD_APPL
350
93
  3
AD_DRAWMGR_NAME
350
B4
  3
AD_GREF_MODULE
350
9B
  3
AD_HOLENOTE_REPOSITORY
350
9A
  3
ADSYSVARMGR
350
89
  3
AMI_MASTER
350
83
  3
AUTOCAD_ASSEMBLIES_PROJECT
350
C0
  3
DESIGNER_ASSEMBLIES_SYSVARS
350
BB
  3
DWGPROPS
350
2949
  3
PH_OBJREACTOR_DICT
350
3C
  3
PH_ROOTGROUP_DICT
350
3B
  3
PH_VARS
350
31
  0
DICTIONARY
  5
27F4
330
2
100
AcDbDictionary
280
     1
281
     1
  3
ACAD_LAYERSTATES
360
27F5
  0
DICTIONARY
  5
28C8
330
F
100
AcDbDictionary
280
     1
281
     1
  3
ADSK_XREC_LAYER_RECONCILED
360
28C9
  0
DICTIONARY
  5
28CA
330
44
100
AcDbDictionary
280
     1
281
     1
  3
ADSK_XREC_LAYER_RECONCILED
360
28CB
  0
DICTIONARY
  5
28CC
330
48
100
AcDbDictionary
280
     1
281
     1
  3
ADSK_XREC_LAYER_RECONCILED
360
28CD
  0
DICTIONARY
  5
28CE
330
4A
100
AcDbDictionary
280
     1
281
     1
  3
ADSK_XREC_LAYER_RECONCILED
360
28CF
  0
DICTIONARY
  5
28D0
330
B6
100
AcDbDictionary
280
     1
281
     1
  3
ADSK_XREC_LAYER_RECONCILED
360
28D1
  0
DICTIONARY
  5
28D2
330
B7
100
AcDbDictionary
280
     1
281
     1
  3
ADSK_XREC_LAYER_RECONCILED
360
28D3
  0
DICTIONARY
  5
28D4
330
B8
100
AcDbDictionary
280
     1
281
     1
  3
ADSK_XREC_LAYER_RECONCILED
360
28D5
  0
DICTIONARY
  5
28D6
330
B9
100
AcDbDictionary
280
     1
281
     1
  3
ADSK_XREC_LAYER_RECONCILED
360
28D7
  0
DICTIONARY
  5
28D8
330
BA
100
AcDbDictionary
280
     1
281
     1
  3
ADSK_XREC_LAYER_RECONCILED
360
28D9
  0
DICTIONARY
  5
28DA
330
CB
100
AcDbDictionary
280
     1
281
     1
  3
ADSK_XREC_LAYER_RECONCILED
360
28DB
  0
DICTIONARY
  5
28DC
330
CC
100
AcDbDictionary
280
     1
281
     1
  3
ADSK_XREC_LAYER_RECONCILED
360
28DD
  0
DICTIONARY
  5
28DE
330
CD
100
AcDbDictionary
280
     1
281
     1
  3
ADSK_XREC_LAYER_RECONCILED
360
28DF
  0
DICTIONARY
  5
28E0
330
85F
100
AcDbDictionary
280
     1
281
     1
  3
ADSK_XREC_LAYER_RECONCILED
360
28E1
  0
DICTIONARY
  5
28E2
330
860
100
AcDbDictionary
280
     1
281
     1
  3
ADSK_XREC_LAYER_RECONCILED
360
28E3
  0
DICTIONARY
  5
28E4
330
27F1
100
AcDbDictionary
280
     1
281
     1
  3
ADSK_XREC_LAYER_RECONCILED
360
28E5
  0
DICTIONARY
  5
2946
330
2875
100
AcDbDictionary
280
     1
281
     1
  3
ACAD_MTEXT_2008_RT
360
2947
  0
DICTIONARY
  5
27B4
102
{ACAD_REACTORS
330
C
102
}
330
C
100
AcDbDictionary
281
     1
  0
DICTIONARY
  5
D
102
{ACAD_REACTORS
330
C
102
}
330
C
100
AcDbDictionary
281
     1
  3
*A1
350
861
  3
PH_BOUNDARYLIST
350
3D
  0
DICTIONARY
  5
27DB
102
{ACAD_REACTORS
330
C
102
}
330
C
100
AcDbDictionary
281
     1
  3
Layout1
350
27DE
  3
Model
350
27DD
  0
DICTIONARY
  5
2787
102
{ACAD_REACTORS
330
C
102
}
330
C
100
AcDbDictionary
281
     1
  3
ByBlock
350
2790
  3
ByLayer
350
2788
  3
Global
350
2798
  0
DICTIONARY
  5
27D9
102
{ACAD_REACTORS
330
C
102
}
330
C
100
AcDbDictionary
281
     1
  3
Standard
350
27DA
  0
DICTIONARY
  5
E
102
{ACAD_REACTORS
330
C
102
}
330
C
100
AcDbDictionary
281
     1
  3
STANDARD
350
13
  0
DICTIONARY
  5
27DC
102
{ACAD_REACTORS
330
C
102
}
330
C
100
AcDbDictionary
281
     1
  0
ACDBDICTIONARYWDFLT
  5
2785
102
{ACAD_REACTORS
330
C
102
}
330
C
100
AcDbDictionary
281
     1
  3
Normal
350
2786
100
AcDbDictionaryWithDefault
340
2786
  0
DICTIONARY
  5
27B7
102
{ACAD_REACTORS
330
C
102
}
330
C
100
AcDbDictionary
281
     1
  3
A0
350
27B8
  3
A1
350
27B9
  3
A2
350
27BA
  3
A3
350
27BB
  3
A4
350
27BC
  3
A5
350
27BD
  3
A6
350
27BE
  3
A7
350
27BF
  3
A8
350
27C0
  3
A9
350
27C1
  3
B0
350
27C2
  3
B1
350
27C3
  3
B2
350
27C4
  3
B3
350
27C5
  3
B4
350
27C6
  3
B5
350
27C7
  3
B6
350
27C8
  3
B7
350
27C9
  3
B8
350
27CA
  3
B9
350
27CB
  3
C0
350
27CC
  3
C1
350
27CD
  3
C2
350
27CE
  3
C3
350
27CF
  3
C4
350
27D0
  3
C5
350
27D1
  3
C6
350
27D2
  3
C7
350
27D3
  3
C8
350
27D4
  3
C9
350
27D5
  3
D0
350
27D6
  3
D1
350
27D7
  3
D2
350
27D8
  0
DICTIONARY
  5
27B5
102
{ACAD_REACTORS
330
C
102
}
330
C
100
AcDbDictionary
281
     1
  3
Standard
350
27B6
  0
DICTIONARY
  5
27A0
102
{ACAD_REACTORS
330
C
102
}
330
C
100
AcDbDictionary
281
     1
  3
2dWireframe
350
27A6
  3
3D Hidden
350
27A8
  3
3dWireframe
350
27A7
  3
Basic
350
27A5
  3
Brighten
350
27AC
  3
ColorChange
350
27B0
  3
Conceptual
350
27A9
  3
Dim
350
27AB
  3
EdgeColorOff
350
27B3
  3
Facepattern
350
27AF
  3
Flat
350
27A1
  3
FlatWithEdges
350
27A2
  3
Gouraud
350
27A3
  3
GouraudWithEdges
350
27A4
  3
JitterOff
350
27B1
  3
Linepattern
350
27AE
  3
OverhangOff
350
27B2
  3
Realistic
350
27AA
  3
Thicken
350
27AD
  0
ACAD_PROXY_OBJECT
  5
D4
102
{ACAD_REACTORS
330
C
102
}
330
C
100
AcDbProxyObject
 90
      499
 91
      540
 95
   589845
 70
     0
 93
        2
310
BF
360
D2
 94
        0
1001
ACAD
1000
AcRTDxfName
1000
ASAPP
  0
ACAD_PROXY_OBJECT
  5
84
102
{ACAD_REACTORS
330
C
102
}
330
C
100
AcDbProxyObject
 90
      499
 91
      506
 95
   589845
 70
     0
 93
       34
310
010000407F
 94
        0
1001
ACAD
1000
AcRTDxfName
1000
ACASGREFMASTER
  0
ACAD_PROXY_OBJECT
  5
DA
102
{ACAD_REACTORS
330
C
102
}
330
C
100
AcDbProxyObject
 90
      499
 91
      541
 95
   589845
 70
     0
 93
       12
310
901F
330
0
 94
        0
1001
ACAD
1000
AcRTDxfName
1000
AGDICTIONARY
  0
XRECORD
  5
2948
102
{ACAD_REACTORS
330
C
102
}
330
C
100
AcDbXrecord
280
     1
 90
        1
330
27B6
330
2875
  0
DICTIONARY
  5
2928
102
{ACAD_REACTORS
330
C
102
}
330
C
100
AcDbDictionary
281
     1
  3
CANNOSCALE
350
292C
  3
CMLEADERSTYLE
350
292A
  3
CTABLESTYLE
350
2929
  3
DIMASSOC
350
2942
  3
INDEXCTL
350
2941
  3
LAYEREVAL
350
292E
  3
LAYERNOTIFY
350
292F
  3
LIGHTINGUNITS
350
292D
  3
MSLTSCALE
350
292B
  3
SORTENTS
350
2940
  3
XCLIPFRAME
350
2943
  0
ACAD_PROXY_OBJECT
  5
A0
102
{ACAD_REACTORS
330
C
102
}
330
C
100
AcDbProxyObject
 90
      499
 91
      511
 95
   589845
 70
     0
 93
      184
310
4C5124810100000000000000000000000000000000000000
330
A1
330
A2
330
A3
330
A4
330
A5
330
A6
330
A7
330
A9
330
AA
330
AB
330
AC
330
AD
330
AE
330
AF
330
B0
330
B1
330
B2
330
B3
 94
        0
1001
ACAD
1000
AcRTDxfName
1000
"IM_SYSVAR_MAN"
  0
ACAD_PROXY_OBJECT
  5
82
102
{ACAD_REACTORS
330
C
102
}
330
C
100
AcDbProxyObject
 90
      499
 91
      504
 95
   589845
 70
     0
 93
      114
310
01010041000000000000000000003F
 94
        0
1001
ACAD
1000
AcRTDxfName
1000
ACGREFMASTER
  0
ACAD_PROXY_OBJECT
  5
80
102
{ACAD_REACTORS
330
C
102
}
330
C
100
AcDbProxyObject
 90
      499
 91
      502
 95
   589845
 70
     0
 93
     1726
310
4280508554E444546494E4580508554E444546494E458050C41445F434F4E56455254523140805084E202D20554E444F014213880B4815539113C050C414D4C54595045434845434B41405084E202D20554E444F014313880B481312539155165411405094E202D204C41594552014313880B481312539155165411405084E
310
202D20554E444F01431053531516541150D21150D2D03014213880B4815539113C05094E202D204C41594552014213880B4815539113C0504554E444F80504554E444F80504554E444F80504554E444F80506534156454153B
 94
        0
1001
ACAD
1000
AcRTDxfName
1000
ACMECOMMANDHISTORY
  0
ACAD_PROXY_OBJECT
  5
7F
102
{ACAD_REACTORS
330
C
102
}
330
C
100
AcDbProxyObject
 90
      499
 91
      501
 95
   589845
 70
     0
 93
      464
310
0101004093200000000000000000000000000000000000000000000000000000000000000000000000000000000000000000000000000009010000
360
85
360
86
360
87
360
88
360
8A
360
8B
360
8C
360
8D
360
8E
360
8F
360
90
360
91
360
92
360
95
360
96
360
97
360
98
360
99
360
9C
360
9D
360
9E
360
9F
360
A1
360
A2
360
A3
360
A4
360
A5
360
A6
360
A7
360
A9
360
AA
360
AB
360
AC
360
AD
360
AE
360
AF
360
B0
360
B1
360
B2
360
B3
360
BC
360
BD
360
BE
360
BF
360
C6
360
C7
360
C8
360
C9
360
CA
360
CE
330
0
 94
        0
1001
ACAD
1000
AcRTDxfName
1000
ACMESCOPE
  0
ACAD_PROXY_OBJECT
  5
93
102
{ACAD_REACTORS
330
C
102
}
330
C
100
AcDbProxyObject
 90
      499
 91
      515
 95
   589845
 70
     0
 93
       42
310
00010200453F
330
85
 94
        0
1001
ACAD
1000
AcRTDxfName
1000
NAMEDAPPL
  0
ACAD_PROXY_OBJECT
  5
B4
102
{ACAD_REACTORS
330
C
102
}
330
C
100
AcDbProxyObject
 90
      499
 91
      527
 95
   589845
 70
     0
 93
       42
310
00010000453F
330
9C
 94
        0
1001
ACAD
1000
AcRTDxfName
1000
AM_DWGMGR_NAME
  0
ACAD_PROXY_OBJECT
  5
9B
102
{ACAD_REACTORS
330
C
102
}
330
C
100
AcDbProxyObject
 90
      499
 91
      522
 95
   589845
 70
     0
 93
      114
310
00000042800000000000000000003F
 94
        0
1001
ACAD
1000
AcRTDxfName
1000
AcAdGrefModule
  0
ACAD_PROXY_OBJECT
  5
9A
102
{ACAD_REACTORS
330
C
102
}
330
C
100
AcDbProxyObject
 90
      499
 91
      521
 95
   589845
 70
     0
 93
        8
310
0032
330
99
 94
        0
1001
ACAD
1000
AcRTDxfName
1000
AM_HNTEMPLATE_MGR_NAME
  0
ACAD_PROXY_OBJECT
  5
89
102
{ACAD_REACTORS
330
C
102
}
330
C
100
AcDbProxyObject
 90
      499
 91
      511
 95
   589845
 70
     0
 93
      104
310
9094410100000000000000000000
330
8A
330
8B
330
8C
330
8D
330
8E
330
8F
330
90
330
91
330
92
 94
        0
1001
ACAD
1000
AcRTDxfName
1000
"IM_SYSVAR_MAN"
  0
ACAD_PROXY_OBJECT
  5
83
102
{ACAD_REACTORS
330
C
102
}
330
C
100
AcDbProxyObject
 90
      499
 91
      505
 95
   589845
 70
     0
 93
       34
310
010000407F
 94
        0
1001
ACAD
1000
AcRTDxfName
1000
AmiMaster
  0
ACAD_PROXY_OBJECT
  5
C0
102
{ACAD_REACTORS
330
C
102
}
330
C
100
AcDbProxyObject
 90
      499
 91
      528
 95
   589845
 70
     0
 93
       58
310
010200420000003F
330
C8
330
CE
330
C9
 94
        0
1001
ACAD
1000
AcRTDxfName
1000
ACAMPROJECT
  0
ACAD_PROXY_OBJECT
  5
BB
102
{ACAD_REACTORS
330
C
102
}
330
C
100
AcDbProxyObject
 90
      499
 91
      511
 95
   589845
 70
     0
 93
       64
310
904441010000000000
330
BC
330
BD
330
BE
330
BF
 94
        0
1001
ACAD
1000
AcRTDxfName
1000
"IM_SYSVAR_MAN"
  0
XRECORD
  5
2949
102
{ACAD_REACTORS
330
C
102
}
330
C
100
AcDbXrecord
280
     1
  1
DWGPROPS COOKIE
  2

  3

  4

  6

  7

  8
kleemann
  9

300
=
301
=
302
=
303
=
304
=
305
=
306
=
307
=
308
=
309
=
 40
0.0234927777777778
 41
2451066.543413947
 42
2456898.633739653
  1

 90
        0
  0
DICTIONARY
  5
3C
102
{ACAD_REACTORS
330
C
102
}
330
C
100
AcDbDictionary
281
     1
  0
DICTIONARY
  5
3B
102
{ACAD_REACTORS
330
C
102
}
330
C
100
AcDbDictionary
281
     1
  3
$PH$AAAE4V
350
27EF
  3
$PH$AAAI
350
28BD
  3
PH_GRPMEMBERS
350
28C5
  0
PH_VARS
  5
31
102
{ACAD_REACTORS
330
C
102
}
330
C
  0
DICTIONARY
  5
27F5
102
{ACAD_REACTORS
330
27F4
102
}
330
27F4
100
AcDbDictionary
281
     1
  0
XRECORD
  5
28C9
102
{ACAD_REACTORS
330
28C8
102
}
330
28C8
100
AcDbXrecord
280
     1
290
     1
  0
XRECORD
  5
28CB
102
{ACAD_REACTORS
330
28CA
102
}
330
28CA
100
AcDbXrecord
280
     1
290
     1
  0
XRECORD
  5
28CD
102
{ACAD_REACTORS
330
28CC
102
}
330
28CC
100
AcDbXrecord
280
     1
290
     1
  0
XRECORD
  5
28CF
102
{ACAD_REACTORS
330
28CE
102
}
330
28CE
100
AcDbXrecord
280
     1
290
     1
  0
XRECORD
  5
28D1
102
{ACAD_REACTORS
330
28D0
102
}
330
28D0
100
AcDbXrecord
280
     1
290
     1
  0
XRECORD
  5
28D3
102
{ACAD_REACTORS
330
28D2
102
}
330
28D2
100
AcDbXrecord
280
     1
290
     1
  0
XRECORD
  5
28D5
102
{ACAD_REACTORS
330
28D4
102
}
330
28D4
100
AcDbXrecord
280
     1
290
     1
  0
XRECORD
  5
28D7
102
{ACAD_REACTORS
330
28D6
102
}
330
28D6
100
AcDbXrecord
280
     1
290
     1
  0
XRECORD
  5
28D9
102
{ACAD_REACTORS
330
28D8
102
}
330
28D8
100
AcDbXrecord
280
     1
290
     1
  0
XRECORD
  5
28DB
102
{ACAD_REACTORS
330
28DA
102
}
330
28DA
100
AcDbXrecord
280
     1
290
     1
  0
XRECORD
  5
28DD
102
{ACAD_REACTORS
330
28DC
102
}
330
28DC
100
AcDbXrecord
280
     1
290
     1
  0
XRECORD
  5
28DF
102
{ACAD_REACTORS
330
28DE
102
}
330
28DE
100
AcDbXrecord
280
     1
290
     1
  0
XRECORD
  5
28E1
102
{ACAD_REACTORS
330
28E0
102
}
330
28E0
100
AcDbXrecord
280
     1
290
     1
  0
XRECORD
  5
28E3
102
{ACAD_REACTORS
330
28E2
102
}
330
28E2
100
AcDbXrecord
280
     1
290
     1
  0
XRECORD
  5
28E5
102
{ACAD_REACTORS
330
28E4
102
}
330
28E4
100
AcDbXrecord
280
     1
290
     1
  0
XRECORD
  5
2947
102
{ACAD_REACTORS
330
2946
102
}
330
2946
100
AcDbXrecord
280
     1
 40
46997.0
  1
\pxql;{\fArial|b1|i0|c0|p34;\W1.1;BOPLA}
  0
GROUP
  5
861
102
{ACAD_REACTORS
330
D
102
}
330
D
100
AcDbGroup
300

 70
     3
 71
     0
  0
GROUP
  5
3D
102
{ACAD_REACTORS
330
D
102
}
330
D
100
AcDbGroup
300

 70
     0
 71
     0
  0
LAYOUT
  5
27DE
102
{ACAD_XDICTIONARY
360
2976
102
}
102
{ACAD_REACTORS
330
27DB
102
}
330
27DB
100
AcDbPlotSettings
  1

  2
\\boplaprint3\dev_konstuktion
  4

  6

 40
0.0
 41
0.0
 42
0.0
 43
0.0
 44
0.0
 45
0.0
 46
0.0
 47
0.0
 48
0.0
 49
0.0
140
0.0
141
0.0
142
1.0
143
1.0
 70
   688
 72
     0
 73
     0
 74
     5
  7

 75
    16
147
1.0
148
0.0
149
0.0
100
AcDbLayout
  1
Layout1
 70
     1
 71
     1
 10
0.0
 20
0.0
 11
420.0
 21
297.0
 12
0.0
 22
0.0
 32
0.0
 14
1.000000000000000E+20
 24
1.000000000000000E+20
 34
1.000000000000000E+20
 15
-1.000000000000000E+20
 25
-1.000000000000000E+20
 35
-1.000000000000000E+20
146
0.0
 13
0.0
 23
0.0
 33
0.0
 16
1.0
 26
0.0
 36
0.0
 17
0.0
 27
1.0
 37
0.0
 76
     0
330
17
  0
LAYOUT
  5
27DD
102
{ACAD_XDICTIONARY
360
28ED
102
}
102
{ACAD_REACTORS
330
27DB
102
}
330
27DB
100
AcDbPlotSettings
  1

  2
\\boplaprint3\dev_konstuktion
  4
A4
  6

 40
5.027082920074462
 41
5.027099609375
 42
5.027069091796875
 43
5.027069091796875
 44
209.8886566162109
 45
297.0530090332031
 46
0.0
 47
0.0
 48
0.0
 49
0.0
140
0.0
141
0.0
142
1.0
143
50.21144385167482
 70
 11952
 72
     0
 73
     1
 74
     0
  7

 75
     0
147
0.0199157786211847
148
4538.475837442117
149
1.669066573779429
100
AcDbLayout
  1
Model
 70
     1
 71
     0
 10
0.0
 20
0.0
 11
12.0
 21
9.0
 12
0.0
 22
0.0
 32
0.0
 14
0.0
 24
0.0
 34
0.0
 15
0.0
 25
0.0
 35
0.0
146
0.0
 13
0.0
 23
0.0
 33
0.0
 16
1.0
 26
0.0
 36
0.0
 17
0.0
 27
1.0
 37
0.0
 76
     0
330
1A
331
2783
1001
ACAD_PSEXT
1000
\\boplaprint3\dev_konstuktion
1000
Generic 35C-4 Series PS
1000
Flur Konstruktion
1000
F-Ineo
1070
     0
  0
MATERIAL
  5
2790
102
{ACAD_XDICTIONARY
360
2791
102
}
102
{ACAD_REACTORS
330
2787
102
}
330
2787
100
AcDbMaterial
  1
ByBlock
 72
     0
 43
0.0208333333333333
 43
0.0
 43
0.0
 43
0.0
 43
0.0
 43
0.0208333333333333
 43
0.0
 43
0.0
 43
0.0
 43
0.0
 43
1.0
 43
0.0
 43
0.0
 43
0.0
 43
0.0
 43
1.0
 77
     0
 47
0.0208333333333333
 47
0.0
 47
0.0
 47
0.0
 47
0.0
 47
0.0208333333333333
 47
0.0
 47
0.0
 47
0.0
 47
0.0
 47
1.0
 47
0.0
 47
0.0
 47
0.0
 47
0.0
 47
1.0
171
     0
 49
0.0208333333333333
 49
0.0
 49
0.0
 49
0.0
 49
0.0
 49
0.0208333333333333
 49
0.0
 49
0.0
 49
0.0
 49
0.0
 49
1.0
 49
0.0
 49
0.0
 49
0.0
 49
0.0
 49
1.0
175
     0
142
0.0208333333333333
142
0.0
142
0.0
142
0.0
142
0.0
142
0.0208333333333333
142
0.0
142
0.0
142
0.0
142
0.0
142
1.0
142
0.0
142
0.0
142
0.0
142
0.0
142
1.0
179
     0
144
0.0208333333333333
144
0.0
144
0.0
144
0.0
144
0.0
144
0.0208333333333333
144
0.0
144
0.0
144
0.0
144
0.0
144
1.0
144
0.0
144
0.0
144
0.0
144
0.0
144
1.0
147
0.0208333333333333
147
0.0
147
0.0
147
0.0
147
0.0
147
0.0208333333333333
147
0.0
147
0.0
147
0.0
147
0.0
147
1.0
147
0.0
147
0.0
147
0.0
147
0.0
147
1.0
  0
MATERIAL
  5
2788
102
{ACAD_XDICTIONARY
360
2789
102
}
102
{ACAD_REACTORS
330
2787
102
}
330
2787
100
AcDbMaterial
  1
ByLayer
 72
     0
 43
0.0208333333333333
 43
0.0
 43
0.0
 43
0.0
 43
0.0
 43
0.0208333333333333
 43
0.0
 43
0.0
 43
0.0
 43
0.0
 43
1.0
 43
0.0
 43
0.0
 43
0.0
 43
0.0
 43
1.0
 77
     0
 47
0.0208333333333333
 47
0.0
 47
0.0
 47
0.0
 47
0.0
 47
0.0208333333333333
 47
0.0
 47
0.0
 47
0.0
 47
0.0
 47
1.0
 47
0.0
 47
0.0
 47
0.0
 47
0.0
 47
1.0
171
     0
 49
0.0208333333333333
 49
0.0
 49
0.0
 49
0.0
 49
0.0
 49
0.0208333333333333
 49
0.0
 49
0.0
 49
0.0
 49
0.0
 49
1.0
 49
0.0
 49
0.0
 49
0.0
 49
0.0
 49
1.0
175
     0
142
0.0208333333333333
142
0.0
142
0.0
142
0.0
142
0.0
142
0.0208333333333333
142
0.0
142
0.0
142
0.0
142
0.0
142
1.0
142
0.0
142
0.0
142
0.0
142
0.0
142
1.0
179
     0
144
0.0208333333333333
144
0.0
144
0.0
144
0.0
144
0.0
144
0.0208333333333333
144
0.0
144
0.0
144
0.0
144
0.0
144
1.0
144
0.0
144
0.0
144
0.0
144
0.0
144
1.0
147
0.0208333333333333
147
0.0
147
0.0
147
0.0
147
0.0
147
0.0208333333333333
147
0.0
147
0.0
147
0.0
147
0.0
147
1.0
147
0.0
147
0.0
147
0.0
147
0.0
147
1.0
  0
MATERIAL
  5
2798
102
{ACAD_XDICTIONARY
360
2799
102
}
102
{ACAD_REACTORS
330
2787
102
}
330
2787
100
AcDbMaterial
  1
Global
 72
     0
 43
0.0208333333333333
 43
0.0
 43
0.0
 43
0.0
 43
0.0
 43
0.0208333333333333
 43
0.0
 43
0.0
 43
0.0
 43
0.0
 43
1.0
 43
0.0
 43
0.0
 43
0.0
 43
0.0
 43
1.0
 77
     0
 47
0.0208333333333333
 47
0.0
 47
0.0
 47
0.0
 47
0.0
 47
0.0208333333333333
 47
0.0
 47
0.0
 47
0.0
 47
0.0
 47
1.0
 47
0.0
 47
0.0
 47
0.0
 47
0.0
 47
1.0
171
     0
 49
0.0208333333333333
 49
0.0
 49
0.0
 49
0.0
 49
0.0
 49
0.0208333333333333
 49
0.0
 49
0.0
 49
0.0
 49
0.0
 49
1.0
 49
0.0
 49
0.0
 49
0.0
 49
0.0
 49
1.0
175
     0
142
0.0208333333333333
142
0.0
142
0.0
142
0.0
142
0.0
142
0.0208333333333333
142
0.0
142
0.0
142
0.0
142
0.0
142
1.0
142
0.0
142
0.0
142
0.0
142
0.0
142
1.0
179
     0
144
0.0208333333333333
144
0.0
144
0.0
144
0.0
144
0.0
144
0.0208333333333333
144
0.0
144
0.0
144
0.0
144
0.0
144
1.0
144
0.0
144
0.0
144
0.0
144
0.0
144
1.0
147
0.0208333333333333
147
0.0
147
0.0
147
0.0
147
0.0
147
0.0208333333333333
147
0.0
147
0.0
147
0.0
147
0.0
147
1.0
147
0.0
147
0.0
147
0.0
147
0.0
147
1.0
  0
MLEADERSTYLE
  5
27DA
102
{ACAD_REACTORS
330
27D9
102
}
330
27D9
100
AcDbMLeaderStyle
170
     2
171
     1
172
     0
 90
        2
 40
0.0
 41
0.0
173
     1
 91
-1056964608
340
14
 92
       -2
290
     1
 42
0.09
291
     1
 43
0.36
  3
Standard
 44
0.18
300

342
10
174
     1
178
     6
175
     1
176
     0
 93
-1056964608
 45
0.18
292
     0
297
     0
 46
0.18
 94
-1056964608
 47
1.0
 49
1.0
140
1.0
293
     1
141
0.0
294
     1
177
     0
142
1.0
295
     0
296
     0
143
0.125
1001
ACAD_MLEADERVER
1070
     2
  0
MLINESTYLE
  5
13
102
{ACAD_REACTORS
330
E
102
}
330
E
100
AcDbMlineStyle
  2
STANDARD
 70
     0
  3

 62
     0
 51
90.0
 52
90.0
 71
     2
 49
0.5
 62
   256
  6
BYLAYER
 49
-0.5
 62
   256
  6
BYLAYER
  0
ACDBPLACEHOLDER
  5
2786
102
{ACAD_REACTORS
330
2785
102
}
330
2785
  0
SCALE
  5
27B8
102
{ACAD_REACTORS
330
27B7
102
}
330
27B7
100
AcDbScale
 70
     0
300
1:1
140
1.0
141
1.0
290
     1
  0
SCALE
  5
27B9
102
{ACAD_REACTORS
330
27B7
102
}
330
27B7
100
AcDbScale
 70
     0
300
1:2
140
1.0
141
2.0
290
     0
  0
SCALE
  5
27BA
102
{ACAD_REACTORS
330
27B7
102
}
330
27B7
100
AcDbScale
 70
     0
300
1:4
140
1.0
141
4.0
290
     0
  0
SCALE
  5
27BB
102
{ACAD_REACTORS
330
27B7
102
}
330
27B7
100
AcDbScale
 70
     0
300
1:5
140
1.0
141
5.0
290
     0
  0
SCALE
  5
27BC
102
{ACAD_REACTORS
330
27B7
102
}
330
27B7
100
AcDbScale
 70
     0
300
1:8
140
1.0
141
8.0
290
     0
  0
SCALE
  5
27BD
102
{ACAD_REACTORS
330
27B7
102
}
330
27B7
100
AcDbScale
 70
     0
300
1:10
140
1.0
141
10.0
290
     0
  0
SCALE
  5
27BE
102
{ACAD_REACTORS
330
27B7
102
}
330
27B7
100
AcDbScale
 70
     0
300
1:16
140
1.0
141
16.0
290
     0
  0
SCALE
  5
27BF
102
{ACAD_REACTORS
330
27B7
102
}
330
27B7
100
AcDbScale
 70
     0
300
1:20
140
1.0
141
20.0
290
     0
  0
SCALE
  5
27C0
102
{ACAD_REACTORS
330
27B7
102
}
330
27B7
100
AcDbScale
 70
     0
300
1:30
140
1.0
141
30.0
290
     0
  0
SCALE
  5
27C1
102
{ACAD_REACTORS
330
27B7
102
}
330
27B7
100
AcDbScale
 70
     0
300
1:40
140
1.0
141
40.0
290
     0
  0
SCALE
  5
27C2
102
{ACAD_REACTORS
330
27B7
102
}
330
27B7
100
AcDbScale
 70
     0
300
1:50
140
1.0
141
50.0
290
     0
  0
SCALE
  5
27C3
102
{ACAD_REACTORS
330
27B7
102
}
330
27B7
100
AcDbScale
 70
     0
300
1:100
140
1.0
141
100.0
290
     0
  0
SCALE
  5
27C4
102
{ACAD_REACTORS
330
27B7
102
}
330
27B7
100
AcDbScale
 70
     0
300
2:1
140
2.0
141
1.0
290
     0
  0
SCALE
  5
27C5
102
{ACAD_REACTORS
330
27B7
102
}
330
27B7
100
AcDbScale
 70
     0
300
4:1
140
4.0
141
1.0
290
     0
  0
SCALE
  5
27C6
102
{ACAD_REACTORS
330
27B7
102
}
330
27B7
100
AcDbScale
 70
     0
300
8:1
140
8.0
141
1.0
290
     0
  0
SCALE
  5
27C7
102
{ACAD_REACTORS
330
27B7
102
}
330
27B7
100
AcDbScale
 70
     0
300
10:1
140
10.0
141
1.0
290
     0
  0
SCALE
  5
27C8
102
{ACAD_REACTORS
330
27B7
102
}
330
27B7
100
AcDbScale
 70
     0
300
100:1
140
100.0
141
1.0
290
     0
  0
SCALE
  5
27C9
102
{ACAD_REACTORS
330
27B7
102
}
330
27B7
100
AcDbScale
 70
     0
300
1/128" = 1'-0"
140
0.0078125
141
12.0
290
     0
  0
SCALE
  5
27CA
102
{ACAD_REACTORS
330
27B7
102
}
330
27B7
100
AcDbScale
 70
     0
300
1/64" = 1'-0"
140
0.015625
141
12.0
290
     0
  0
SCALE
  5
27CB
102
{ACAD_REACTORS
330
27B7
102
}
330
27B7
100
AcDbScale
 70
     0
300
1/32" = 1'-0"
140
0.03125
141
12.0
290
     0
  0
SCALE
  5
27CC
102
{ACAD_REACTORS
330
27B7
102
}
330
27B7
100
AcDbScale
 70
     0
300
1/16" = 1'-0"
140
0.0625
141
12.0
290
     0
  0
SCALE
  5
27CD
102
{ACAD_REACTORS
330
27B7
102
}
330
27B7
100
AcDbScale
 70
     0
300
3/32" = 1'-0"
140
0.09375
141
12.0
290
     0
  0
SCALE
  5
27CE
102
{ACAD_REACTORS
330
27B7
102
}
330
27B7
100
AcDbScale
 70
     0
300
1/8" = 1'-0"
140
0.125
141
12.0
290
     0
  0
SCALE
  5
27CF
102
{ACAD_REACTORS
330
27B7
102
}
330
27B7
100
AcDbScale
 70
     0
300
3/16" = 1'-0"
140
0.1875
141
12.0
290
     0
  0
SCALE
  5
27D0
102
{ACAD_REACTORS
330
27B7
102
}
330
27B7
100
AcDbScale
 70
     0
300
1/4" = 1'-0"
140
0.25
141
12.0
290
     0
  0
SCALE
  5
27D1
102
{ACAD_REACTORS
330
27B7
102
}
330
27B7
100
AcDbScale
 70
     0
300
3/8" = 1'-0"
140
0.375
141
12.0
290
     0
  0
SCALE
  5
27D2
102
{ACAD_REACTORS
330
27B7
102
}
330
27B7
100
AcDbScale
 70
     0
300
1/2" = 1'-0"
140
0.5
141
12.0
290
     0
  0
SCALE
  5
27D3
102
{ACAD_REACTORS
330
27B7
102
}
330
27B7
100
AcDbScale
 70
     0
300
3/4" = 1'-0"
140
0.75
141
12.0
290
     0
  0
SCALE
  5
27D4
102
{ACAD_REACTORS
330
27B7
102
}
330
27B7
100
AcDbScale
 70
     0
300
1" = 1'-0"
140
1.0
141
12.0
290
     0
  0
SCALE
  5
27D5
102
{ACAD_REACTORS
330
27B7
102
}
330
27B7
100
AcDbScale
 70
     0
300
1-1/2" = 1'-0"
140
1.5
141
12.0
290
     0
  0
SCALE
  5
27D6
102
{ACAD_REACTORS
330
27B7
102
}
330
27B7
100
AcDbScale
 70
     0
300
3" = 1'-0"
140
3.0
141
12.0
290
     0
  0
SCALE
  5
27D7
102
{ACAD_REACTORS
330
27B7
102
}
330
27B7
100
AcDbScale
 70
     0
300
6" = 1'-0"
140
6.0
141
12.0
290
     0
  0
SCALE
  5
27D8
102
{ACAD_REACTORS
330
27B7
102
}
330
27B7
100
AcDbScale
 70
     0
300
1'-0" = 1'-0"
140
12.0
141
12.0
290
     0
  0
TABLESTYLE
  5
27B6
102
{ACAD_XDICTIONARY
360
2944
102
}
102
{ACAD_REACTORS
330
27B5
102
}
330
27B5
100
AcDbTableStyle
  3
Standard
 70
     0
 71
     0
 40
0.06
 41
0.06
280
     0
281
     0
  7
STANDARD
140
0.18
170
     2
 62
     0
 63
     7
283
     0
274
    -2
284
     1
 64
     0
275
    -2
285
     1
 65
     0
276
    -2
286
     1
 66
     0
277
    -2
287
     1
 67
     0
278
    -2
288
     1
 68
     0
279
    -2
289
     1
 69
     0
  7
STANDARD
140
0.25
170
     5
 62
     0
 63
     7
283
     0
274
    -2
284
     1
 64
     0
275
    -2
285
     1
 65
     0
276
    -2
286
     1
 66
     0
277
    -2
287
     1
 67
     0
278
    -2
288
     1
 68
     0
279
    -2
289
     1
 69
     0
  7
STANDARD
140
0.18
170
     5
 62
     0
 63
     7
283
     0
274
    -2
284
     1
 64
     0
275
    -2
285
     1
 65
     0
276
    -2
286
     1
 66
     0
277
    -2
287
     1
 67
     0
278
    -2
288
     1
 68
     0
279
    -2
289
     1
 69
     0
  0
VISUALSTYLE
  5
27A6
102
{ACAD_XDICTIONARY
360
2957
102
}
102
{ACAD_REACTORS
330
27A0
102
}
330
27A0
100
AcDbVisualStyle
  2
2dWireframe
 70
     4
 71
     0
 72
     2
 73
     0
 90
        0
 40
-0.6
 41
-30.0
 62
     5
 63
     7
 74
     1
 91
        4
 64
     7
 65
   257
 75
     1
175
     1
 42
1.0
 92
        0
 66
   257
 43
1.0
 76
     1
 77
     6
 78
     2
 67
     7
 79
     5
170
     0
171
     0
290
     0
174
     0
 93
        1
 44
0.0
173
     0
291
     0
 45
0.0
1001
ACAD
1000
AcDbSavedByObjectVersion
1070
     0
  0
VISUALSTYLE
  5
27A8
102
{ACAD_XDICTIONARY
360
295B
102
}
102
{ACAD_REACTORS
330
27A0
102
}
330
27A0
100
AcDbVisualStyle
  2
3D Hidden
 70
     6
 71
     1
 72
     2
 73
     2
 90
        0
 40
-0.6
 41
-30.0
 62
     5
 63
     7
 74
     2
 91
        2
 64
     7
 65
   257
 75
     2
175
     1
 42
179.0
 92
        0
 66
   257
 43
1.0
 76
     1
 77
     6
 78
     2
 67
     7
 79
     3
170
     0
171
     0
290
     0
174
     0
 93
        1
 44
0.0
173
     0
291
     0
 45
0.0
1001
ACAD
1000
AcDbSavedByObjectVersion
1070
     0
  0
VISUALSTYLE
  5
27A7
102
{ACAD_XDICTIONARY
360
2959
102
}
102
{ACAD_REACTORS
330
27A0
102
}
330
27A0
100
AcDbVisualStyle
  2
3dWireframe
 70
     5
 71
     0
 72
     2
 73
     0
 90
        0
 40
-0.6
 41
-30.0
 62
     5
 63
     7
 74
     1
 91
        4
 64
     7
 65
   257
 75
     1
175
     1
 42
1.0
 92
        0
 66
   257
 43
1.0
 76
     1
 77
     6
 78
     2
 67
     7
 79
     5
170
     0
171
     0
290
     0
174
     0
 93
        1
 44
0.0
173
     0
291
     0
 45
0.0
1001
ACAD
1000
AcDbSavedByObjectVersion
1070
     0
  0
VISUALSTYLE
  5
27A5
102
{ACAD_XDICTIONARY
360
2955
102
}
102
{ACAD_REACTORS
330
27A0
102
}
330
27A0
100
AcDbVisualStyle
  2
Basic
 70
     7
 71
     1
 72
     0
 73
     1
 90
        0
 40
-0.6
 41
-30.0
 62
     5
 63
     7
 74
     0
 91
        4
 64
     7
 65
   257
 75
     1
175
     1
 42
1.0
 92
        8
 66
     7
 43
1.0
 76
     1
 77
     6
 78
     2
 67
     7
 79
     5
170
     0
171
     0
290
     0
174
     0
 93
        1
 44
0.0
173
     0
291
     1
 45
0.0
1001
ACAD
1000
AcDbSavedByObjectVersion
1070
     0
  0
VISUALSTYLE
  5
27AC
102
{ACAD_XDICTIONARY
360
2963
102
}
102
{ACAD_REACTORS
330
27A0
102
}
330
27A0
100
AcDbVisualStyle
  2
Brighten
 70
    12
 71
     2
 72
     2
 73
     0
 90
        0
 40
-0.6
 41
-30.0
 62
     5
 63
     7
 74
     1
 91
        4
 64
     7
 65
   257
 75
     1
175
     1
 42
1.0
 92
        8
 66
     7
 43
1.0
 76
     1
 77
     6
 78
     2
 67
     7
 79
     5
170
     0
171
     0
290
     0
174
     0
 93
        1
 44
50.0
173
     0
291
     1
 45
0.0
1001
ACAD
1000
AcDbSavedByObjectVersion
1070
     0
  0
VISUALSTYLE
  5
27B0
102
{ACAD_XDICTIONARY
360
296B
102
}
102
{ACAD_REACTORS
330
27A0
102
}
330
27A0
100
AcDbVisualStyle
  2
ColorChange
 70
    16
 71
     2
 72
     2
 73
     3
 90
        0
 40
-0.6
 41
-30.0
 62
     5
 63
     8
 74
     1
 91
        4
 64
     7
 65
   257
 75
     1
175
     1
 42
1.0
 92
        8
 66
     8
 43
1.0
 76
     1
 77
     6
 78
     2
 67
     7
 79
     5
170
     0
171
     0
290
     0
174
     0
 93
        1
 44
0.0
173
     0
291
     1
 45
0.0
1001
ACAD
1000
AcDbSavedByObjectVersion
1070
     0
  0
VISUALSTYLE
  5
27A9
102
{ACAD_XDICTIONARY
360
295D
102
}
102
{ACAD_REACTORS
330
27A0
102
}
330
27A0
100
AcDbVisualStyle
  2
Conceptual
 70
     9
 71
     3
 72
     2
 73
     0
 90
        0
 40
-0.6
 41
-30.0
 62
     5
 63
     7
 74
     2
 91
        2
 64
     7
 65
   257
 75
     1
175
     1
 42
179.0
 92
        8
 66
     7
 43
1.0
 76
     1
 77
     6
 78
     2
 67
     7
 79
     3
170
     0
171
     0
290
     0
174
     0
 93
        1
 44
0.0
173
     0
291
     0
 45
0.0
1001
ACAD
1000
AcDbSavedByObjectVersion
1070
     0
  0
VISUALSTYLE
  5
27AB
102
{ACAD_XDICTIONARY
360
2961
102
}
102
{ACAD_REACTORS
330
27A0
102
}
330
27A0
100
AcDbVisualStyle
  2
Dim
 70
    11
 71
     2
 72
     2
 73
     0
 90
        0
 40
-0.6
 41
-30.0
 62
     5
 63
     7
 74
     1
 91
        4
 64
     7
 65
   257
 75
     1
175
     1
 42
1.0
 92
        8
 66
     7
 43
1.0
 76
     1
 77
     6
 78
     2
 67
     7
 79
     5
170
     0
171
     0
290
     0
174
     0
 93
        1
 44
-50.0
173
     0
291
     1
 45
0.0
1001
ACAD
1000
AcDbSavedByObjectVersion
1070
     0
  0
VISUALSTYLE
  5
27B3
102
{ACAD_XDICTIONARY
360
2971
102
}
102
{ACAD_REACTORS
330
27A0
102
}
330
27A0
100
AcDbVisualStyle
  2
EdgeColorOff
 70
    22
 71
     2
 72
     2
 73
     0
 90
        0
 40
-0.6
 41
-30.0
 62
     5
 63
     7
 74
     1
 91
        4
 64
     7
 65
   257
 75
     1
175
     1
 42
1.0
 92
        8
 66
     7
 43
1.0
 76
     1
 77
     6
 78
     2
 67
     7
 79
     5
170
     0
171
     0
290
     0
174
     0
 93
        1
 44
0.0
173
     0
291
     1
 45
0.0
1001
ACAD
1000
AcDbSavedByObjectVersion
1070
     0
  0
VISUALSTYLE
  5
27AF
102
{ACAD_XDICTIONARY
360
2969
102
}
102
{ACAD_REACTORS
330
27A0
102
}
330
27A0
100
AcDbVisualStyle
  2
Facepattern
 70
    15
 71
     2
 72
     2
 73
     0
 90
        0
 40
-0.6
 41
-30.0
 62
     5
 63
     7
 74
     1
 91
        4
 64
     7
 65
   257
 75
     1
175
     1
 42
1.0
 92
        8
 66
     7
 43
1.0
 76
     1
 77
     6
 78
     2
 67
     7
 79
     5
170
     0
171
     0
290
     0
174
     0
 93
        1
 44
0.0
173
     0
291
     1
 45
0.0
1001
ACAD
1000
AcDbSavedByObjectVersion
1070
     0
  0
VISUALSTYLE
  5
27A1
102
{ACAD_XDICTIONARY
360
294D
102
}
102
{ACAD_REACTORS
330
27A0
102
}
330
27A0
100
AcDbVisualStyle
  2
Flat
 70
     0
 71
     2
 72
     1
 73
     1
 90
        2
 40
-0.6
 41
30.0
 62
     5
 63
     7
 74
     0
 91
        4
 64
     7
 65
   257
 75
     1
175
     1
 42
1.0
 92
        8
 66
     7
 43
1.0
 76
     1
 77
     6
 78
     2
 67
     7
 79
     5
170
     0
171
     0
290
     0
174
     0
 93
       13
 44
0.0
173
     0
291
     1
 45
0.0
1001
ACAD
1000
AcDbSavedByObjectVersion
1070
     0
  0
VISUALSTYLE
  5
27A2
102
{ACAD_XDICTIONARY
360
294F
102
}
102
{ACAD_REACTORS
330
27A0
102
}
330
27A0
100
AcDbVisualStyle
  2
FlatWithEdges
 70
     1
 71
     2
 72
     1
 73
     1
 90
        2
 40
-0.6
 41
30.0
 62
     5
 63
     7
 74
     1
 91
        4
 64
     7
 65
   257
 75
     1
175
     1
 42
1.0
 92
        0
 66
   257
 43
1.0
 76
     1
 77
     6
 78
     2
 67
     7
 79
     5
170
     0
171
     0
290
     0
174
     0
 93
       13
 44
0.0
173
     0
291
     1
 45
0.0
1001
ACAD
1000
AcDbSavedByObjectVersion
1070
     0
  0
VISUALSTYLE
  5
27A3
102
{ACAD_XDICTIONARY
360
2951
102
}
102
{ACAD_REACTORS
330
27A0
102
}
330
27A0
100
AcDbVisualStyle
  2
Gouraud
 70
     2
 71
     2
 72
     2
 73
     1
 90
        2
 40
-0.6
 41
30.0
 62
     5
 63
     7
 74
     0
 91
        4
 64
     7
 65
   257
 75
     1
175
     1
 42
1.0
 92
        0
 66
     7
 43
1.0
 76
     1
 77
     6
 78
     2
 67
     7
 79
     5
170
     0
171
     0
290
     0
174
     0
 93
       13
 44
0.0
173
     0
291
     1
 45
0.0
1001
ACAD
1000
AcDbSavedByObjectVersion
1070
     0
  0
VISUALSTYLE
  5
27A4
102
{ACAD_XDICTIONARY
360
2953
102
}
102
{ACAD_REACTORS
330
27A0
102
}
330
27A0
100
AcDbVisualStyle
  2
GouraudWithEdges
 70
     3
 71
     2
 72
     2
 73
     1
 90
        2
 40
-0.6
 41
30.0
 62
     5
 63
     7
 74
     1
 91
        4
 64
     7
 65
   257
 75
     1
175
     1
 42
1.0
 92
        0
 66
   257
 43
1.0
 76
     1
 77
     6
 78
     2
 67
     7
 79
     5
170
     0
171
     0
290
     0
174
     0
 93
       13
 44
0.0
173
     0
291
     1
 45
0.0
1001
ACAD
1000
AcDbSavedByObjectVersion
1070
     0
  0
VISUALSTYLE
  5
27B1
102
{ACAD_XDICTIONARY
360
296D
102
}
102
{ACAD_REACTORS
330
27A0
102
}
330
27A0
100
AcDbVisualStyle
  2
JitterOff
 70
    20
 71
     2
 72
     2
 73
     0
 90
        0
 40
-0.6
 41
-30.0
 62
     5
 63
     7
 74
     1
 91
        4
 64
     7
 65
   257
 75
     1
175
     1
 42
1.0
 92
       10
 66
     7
 43
1.0
 76
     1
 77
     6
 78
     2
 67
     7
 79
     5
170
     0
171
     0
290
     0
174
     0
 93
        1
 44
0.0
173
     0
291
     1
 45
0.0
1001
ACAD
1000
AcDbSavedByObjectVersion
1070
     0
  0
VISUALSTYLE
  5
27AE
102
{ACAD_XDICTIONARY
360
2967
102
}
102
{ACAD_REACTORS
330
27A0
102
}
330
27A0
100
AcDbVisualStyle
  2
Linepattern
 70
    14
 71
     2
 72
     2
 73
     0
 90
        0
 40
-0.6
 41
-30.0
 62
     5
 63
     7
 74
     1
 91
        4
 64
     7
 65
   257
 75
     7
175
     7
 42
1.0
 92
        8
 66
     7
 43
1.0
 76
     1
 77
     6
 78
     2
 67
     7
 79
     5
170
     0
171
     0
290
     0
174
     0
 93
        1
 44
0.0
173
     0
291
     1
 45
0.0
1001
ACAD
1000
AcDbSavedByObjectVersion
1070
     0
  0
VISUALSTYLE
  5
27B2
102
{ACAD_XDICTIONARY
360
296F
102
}
102
{ACAD_REACTORS
330
27A0
102
}
330
27A0
100
AcDbVisualStyle
  2
OverhangOff
 70
    21
 71
     2
 72
     2
 73
     0
 90
        0
 40
-0.6
 41
-30.0
 62
     5
 63
     7
 74
     1
 91
        4
 64
     7
 65
   257
 75
     1
175
     1
 42
1.0
 92
        9
 66
     7
 43
1.0
 76
     1
 77
     6
 78
     2
 67
     7
 79
     5
170
     0
171
     0
290
     0
174
     0
 93
        1
 44
0.0
173
     0
291
     1
 45
0.0
1001
ACAD
1000
AcDbSavedByObjectVersion
1070
     0
  0
VISUALSTYLE
  5
27AA
102
{ACAD_XDICTIONARY
360
295F
102
}
102
{ACAD_REACTORS
330
27A0
102
}
330
27A0
100
AcDbVisualStyle
  2
Realistic
 70
     8
 71
     2
 72
     2
 73
     0
 90
        0
 40
-0.6
 41
-30.0
 62
     5
 63
     7
 74
     1
 91
        0
 64
     7
 65
   257
 75
     1
175
     1
 42
1.0
 92
        8
 66
     8
 43
1.0
 76
     1
 77
     6
 78
     2
 67
     7
 79
     5
170
     0
171
     0
290
     0
174
     0
 93
       13
 44
0.0
173
     0
291
     0
 45
0.0
1001
ACAD
1000
AcDbSavedByObjectVersion
1070
     0
  0
VISUALSTYLE
  5
27AD
102
{ACAD_XDICTIONARY
360
2965
102
}
102
{ACAD_REACTORS
330
27A0
102
}
330
27A0
100
AcDbVisualStyle
  2
Thicken
 70
    13
 71
     2
 72
     2
 73
     0
 90
        0
 40
-0.6
 41
-30.0
 62
     5
 63
     7
 74
     1
 91
        4
 64
     7
 65
   257
 75
     1
175
     1
 42
1.0
 92
       12
 66
     7
 43
1.0
 76
     1
 77
     6
 78
     2
 67
     7
 79
     5
170
     0
171
     0
290
     0
174
     0
 93
        1
 44
0.0
173
     0
291
     1
 45
0.0
1001
ACAD
1000
AcDbSavedByObjectVersion
1070
     0
  0
ACAD_PROXY_OBJECT
  5
D2
330
0
100
AcDbProxyObject
 90
      499
 91
      538
 95
   589845
 70
     0
 93
      736
310
9084D2E312E3232336407014B7269BC41100000000000000E03F1EC52B91F85EA10FE1EC52B91F85EA10FD034153471EC52B91F85EA10FC000000FC83D797414650540C000000000000E03F3F2A7C749358940FC000000FC83D7974100
 94
        0
1001
ACAD
1000
AcRTDxfName
1000
ASSYSVARS
  0
DICTIONARYVAR
  5
292C
102
{ACAD_REACTORS
330
2928
102
}
330
2928
100
DictionaryVariables
280
     0
  1
1:1
  0
DICTIONARYVAR
  5
292A
102
{ACAD_REACTORS
330
2928
102
}
330
2928
100
DictionaryVariables
280
     0
  1
STANDARD
  0
DICTIONARYVAR
  5
2929
102
{ACAD_REACTORS
330
2928
102
}
330
2928
100
DictionaryVariables
280
     0
  1
STANDARD
  0
DICTIONARYVAR
  5
2942
102
{ACAD_REACTORS
330
2928
102
}
330
2928
100
DictionaryVariables
280
     0
  1
1
  0
DICTIONARYVAR
  5
2941
102
{ACAD_REACTORS
330
2928
102
}
330
2928
100
DictionaryVariables
280
     0
  1
0
  0
DICTIONARYVAR
  5
292E
102
{ACAD_REACTORS
330
2928
102
}
330
2928
100
DictionaryVariables
280
     0
  1
1
  0
DICTIONARYVAR
  5
292F
102
{ACAD_REACTORS
330
2928
102
}
330
2928
100
DictionaryVariables
280
     0
  1
15
  0
DICTIONARYVAR
  5
292D
102
{ACAD_REACTORS
330
2928
102
}
330
2928
100
DictionaryVariables
280
     0
  1
0
  0
DICTIONARYVAR
  5
292B
102
{ACAD_REACTORS
330
2928
102
}
330
2928
100
DictionaryVariables
280
     0
  1
0
  0
DICTIONARYVAR
  5
2940
102
{ACAD_REACTORS
330
2928
102
}
330
2928
100
DictionaryVariables
280
     0
  1
127
  0
DICTIONARYVAR
  5
2943
102
{ACAD_REACTORS
330
2928
102
}
330
2928
100
DictionaryVariables
280
     0
  1
2
  0
ACAD_PROXY_OBJECT
  5
85
330
0
100
AcDbProxyObject
 90
      499
 91
      507
 95
   589845
 70
     0
 93
      354
310
000000000000405AA6A9AA40504646174650142118B8C4B8C8C8CD9C0504646174650142118B8C4B8C8C8CD9FF
330
7F
330
86
330
87
330
89
330
0
330
0
 94
        0
1001
ACAD
1000
AcRTDxfName
1000
ADAPPL
  0
ACAD_PROXY_OBJECT
  5
86
330
0
100
AcDbProxyObject
 90
      499
 91
      508
 95
   589845
 70
     0
 93
      120
310
00009024410100000092080002A6A6AC
330
7F
330
96
330
95
330
0
 94
        0
1001
ACAD
1000
AcRTDxfName
1000
DEPMGR
  0
ACAD_PROXY_OBJECT
  5
87
330
0
100
AcDbProxyObject
 90
      499
 91
      509
 95
   589845
 70
     0
 93
       46
310
00000000920B
330
7F
330
0
330
88
 94
        0
1001
ACAD
1000
AcRTDxfName
1000
PARAMMGR
  0
ACAD_PROXY_OBJECT
  5
88
330
0
100
AcDbProxyObject
 90
      499
 91
      510
 95
   589845
 70
     0
 93
       22
310
0000AB
330
7F
 94
        0
1001
ACAD
1000
AcRTDxfName
1000
PARAMSCOPE
  0
ACAD_PROXY_OBJECT
  5
8A
330
0
100
AcDbProxyObject
 90
      499
 91
      512
 95
   589845
 70
     0
 93
      124
310
00000142905350D3D39114D414D6905F
330
7F
 94
        0
1001
ACAD
1000
AcRTDxfName
1000
SYSTEM_VAR_INT
  0
ACAD_PROXY_OBJECT
  5
8B
330
0
100
AcDbProxyObject
 90
      499
 91
      512
 95
   589845
 70
     0
 93
      124
310
000001429053549553115353D111501F
330
7F
 94
        0
1001
ACAD
1000
AcRTDxfName
1000
SYSTEM_VAR_INT
  0
ACAD_PROXY_OBJECT
  5
8C
330
0
100
AcDbProxyObject
 90
      499
 91
      512
 95
   589845
 70
     0
 93
      108
310
00000142105354D2D353D111501F
330
7F
 94
        0
1001
ACAD
1000
AcRTDxfName
1000
SYSTEM_VAR_INT
  0
ACAD_PROXY_OBJECT
  5
8D
330
0
100
AcDbProxyObject
 90
      499
 91
      512
 95
   589845
 70
     0
 93
      140
310
000001435053511253511254D41353D1116F
330
7F
 94
        0
1001
ACAD
1000
AcRTDxfName
1000
SYSTEM_VAR_INT
  0
ACAD_PROXY_OBJECT
  5
8E
330
0
100
AcDbProxyObject
 90
      499
 91
      513
 95
   589845
 70
     0
 93
      180
310
00000142905354D2D05391D513D300000000000001040F
330
7F
 94
        0
1001
ACAD
1000
AcRTDxfName
1000
SYSTEM_VAR_REAL
  0
ACAD_PROXY_OBJECT
  5
8F
330
0
100
AcDbProxyObject
 90
      499
 91
      514
 95
   589845
 70
     0
 93
      164
310
00000142505354D2D4D516531140505434F4E542AF
330
7F
 94
        0
1001
ACAD
1000
AcRTDxfName
1000
SYSTEM_VAR_STR
  0
ACAD_PROXY_OBJECT
  5
90
330
0
100
AcDbProxyObject
 90
      499
 91
      512
 95
   589845
 70
     0
 93
      108
310
00000142105350D351111253501F
330
7F
 94
        0
1001
ACAD
1000
AcRTDxfName
1000
SYSTEM_VAR_INT
  0
ACAD_PROXY_OBJECT
  5
91
330
0
100
AcDbProxyObject
 90
      499
 91
      514
 95
   589845
 70
     0
 93
      116
310
00000142505354105491925311406F
330
7F
 94
        0
1001
ACAD
1000
AcRTDxfName
1000
SYSTEM_VAR_STR
  0
ACAD_PROXY_OBJECT
  5
92
330
0
100
AcDbProxyObject
 90
      499
 91
      512
 95
   589845
 70
     0
 93
      100
310
00000142105350D3D35414D5AF
330
7F
 94
        0
1001
ACAD
1000
AcRTDxfName
1000
SYSTEM_VAR_INT
  0
ACAD_PROXY_OBJECT
  5
95
330
0
100
AcDbProxyObject
 90
      499
 91
      517
 95
   589845
 70
     0
 93
      164
310
000092090148200A00000440000FFFFFFFF000000F
330
7F
330
96
330
86
330
0
 94
        0
1001
ACAD
1000
AcRTDxfName
1000
ADBASE
  0
ACAD_PROXY_OBJECT
  5
96
330
0
100
AcDbProxyObject
 90
      499
 91
      518
 95
   589845
 70
     0
 93
       82
310
000040520802482A80003F
330
7F
330
95
330
86
330
0
 94
        0
1001
ACAD
1000
AcRTDxfName
1000
BODYID
  0
ACAD_PROXY_OBJECT
  5
97
330
0
100
AcDbProxyObject
 90
      499
 91
      510
 95
   589845
 70
     0
 93
       22
310
0000AB
330
7F
 94
        0
1001
ACAD
1000
AcRTDxfName
1000
PARAMSCOPE
  0
ACAD_PROXY_OBJECT
  5
98
330
0
100
AcDbProxyObject
 90
      499
 91
      519
 95
   589845
 70
     0
 93
       38
310
000000920B
330
7F
330
0
 94
        0
1001
ACAD
1000
AcRTDxfName
1000
WORKPLANEDISPLAYMGR
  0
ACAD_PROXY_OBJECT
  5
99
330
0
100
AcDbProxyObject
 90
      499
 91
      520
 95
   589845
 70
     0
 93
     3204
310
0000419208050A44555243485F424F4852014254D050D2D7D093D2148050C44555243485F5A594C494E440142D4D050D2D7D696531253910050B44555243485F4B4547454C014294D050D2D7D2D151D15310648201451EC94958C8094950535112504811155490D20B9F4051D7B252563202525414D4449412058202525414
310
D4445502054494546457D014F5EC94958C8094950535112504811155490D20B9F57141ED6965312539108094958C80949505350D112504816080949505350D09111540815125151915F405467B252563202525414D4449412058202525414D4445502054494546457D5C507B5A594C494E4420252563202525414D43444941
310
2058202525414D43424445502054494546457D014E5EC94958C8094950535112504811155490D20B9F57141ED2D151D15308094958C80949505350D112504816080949505350D4D05391C949591F405427B252563202525414D4449412058202525414D4445502054494546457D5C507B4B4547454C20252563202525414D4
310
34449412058202525414D4353414E472525647DF
330
7F
 94
        0
1001
ACAD
1000
AcRTDxfName
1000
ADHNTMPLT
  0
ACAD_PROXY_OBJECT
  5
9C
330
0
100
AcDbProxyObject
 90
      499
 91
      523
 95
   589845
 70
     0
 93
      332
310
0000014119185D1940508442E312E32323362014119185D1940508442E312E323233624050100000000F
330
7F
330
9D
330
9F
330
A0
330
0
 94
        0
1001
ACAD
1000
AcRTDxfName
1000
AM_DRAWING_MGR
  0
ACAD_PROXY_OBJECT
  5
9D
330
0
100
AcDbProxyObject
 90
      499
 91
      524
 95
   589845
 70
     0
 93
       56
310
0000901441010000
330
7F
330
9E
 94
        0
1001
ACAD
1000
AcRTDxfName
1000
AM_DWG_DOCUMENT
  0
ACAD_PROXY_OBJECT
  5
9E
330
0
100
AcDbProxyObject
 90
      499
 91
      525
 95
   589845
 70
     0
 93
       40
310
0000A4410100
330
7F
 94
        0
1001
ACAD
1000
AcRTDxfName
1000
AM_DWG_SHEET
  0
ACAD_PROXY_OBJECT
  5
9F
330
0
100
AcDbProxyObject
 90
      499
 91
      526
 95
   589845
 70
     0
 93
       68
310
0000A44101920A482F
330
7F
 94
        0
1001
ACAD
1000
AcRTDxfName
1000
AM_VIEWDIMPARMAP
  0
ACAD_PROXY_OBJECT
  5
A1
330
0
100
AcDbProxyObject
 90
      499
 91
      512
 95
   589845
 70
     0
 93
      108
310
000001421053521310D05310D01F
330
7F
 94
        0
1001
ACAD
1000
AcRTDxfName
1000
SYSTEM_VAR_INT
  0
ACAD_PROXY_OBJECT
  5
A2
330
0
100
AcDbProxyObject
 90
      499
 91
      512
 95
   589845
 70
     0
 93
      124
310
000001429053541493D295165411501F
330
7F
 94
        0
1001
ACAD
1000
AcRTDxfName
1000
SYSTEM_VAR_INT
  0
ACAD_PROXY_OBJECT
  5
A3
330
0
100
AcDbProxyObject
 90
      499
 91
      512
 95
   589845
 70
     0
 93
      124
310
00000142905354915554D1511253501F
330
7F
 94
        0
1001
ACAD
1000
AcRTDxfName
1000
SYSTEM_VAR_INT
  0
ACAD_PROXY_OBJECT
  5
A4
330
0
100
AcDbProxyObject
 90
      499
 91
      512
 95
   589845
 70
     0
 93
      132
310
00000143105354D150D51253D39112536F
330
7F
 94
        0
1001
ACAD
1000
AcRTDxfName
1000
SYSTEM_VAR_INT
  0
ACAD_PROXY_OBJECT
  5
A5
330
0
100
AcDbProxyObject
 90
      499
 91
      512
 95
   589845
 70
     0
 93
      124
310
00000142905355941093D4911154901F
330
7F
 94
        0
1001
ACAD
1000
AcRTDxfName
1000
SYSTEM_VAR_INT
  0
ACAD_PROXY_OBJECT
  5
A6
330
0
100
AcDbProxyObject
 90
      499
 91
      512
 95
   589845
 70
     0
 93
      116
310
0000014290535115D1D0D3D313D4AF
330
7F
 94
        0
1001
ACAD
1000
AcRTDxfName
1000
SYSTEM_VAR_INT
  0
ACAD_PROXY_OBJECT
  5
A7
330
0
100
AcDbProxyObject
 90
      499
 91
      514
 95
   589845
 70
     0
 93
      196
310
0000014290535212511315165411405085645524445434B54F
330
7F
 94
        0
1001
ACAD
1000
AcRTDxfName
1000
SYSTEM_VAR_STR
  0
ACAD_PROXY_OBJECT
  5
A9
330
0
100
AcDbProxyObject
 90
      499
 91
      514
 95
   589845
 70
     0
 93
      196
310
00000142905354D150D315165411405085048414E544F4D32F
330
7F
 94
        0
1001
ACAD
1000
AcRTDxfName
1000
SYSTEM_VAR_STR
  0
ACAD_PROXY_OBJECT
  5
AA
330
0
100
AcDbProxyObject
 90
      499
 91
      512
 95
   589845
 70
     0
 93
      108
310
00000142105354D51114D0D5102F
330
7F
 94
        0
1001
ACAD
1000
AcRTDxfName
1000
SYSTEM_VAR_INT
  0
ACAD_PROXY_OBJECT
  5
AB
330
0
100
AcDbProxyObject
 90
      499
 91
      512
 95
   589845
 70
     0
 93
      108
310
00000142105354D511151054102F
330
7F
 94
        0
1001
ACAD
1000
AcRTDxfName
1000
SYSTEM_VAR_INT
  0
ACAD_PROXY_OBJECT
  5
AC
330
0
100
AcDbProxyObject
 90
      499
 91
      512
 95
   589845
 70
     0
 93
      108
310
00000142105354D511111513102F
330
7F
 94
        0
1001
ACAD
1000
AcRTDxfName
1000
SYSTEM_VAR_INT
  0
ACAD_PROXY_OBJECT
  5
AD
330
0
100
AcDbProxyObject
 90
      499
 91
      513
 95
   589845
 70
     0
 93
      148
310
00000141905350D310D34295C8FC2F528BC3FF
330
7F
 94
        0
1001
ACAD
1000
AcRTDxfName
1000
SYSTEM_VAR_REAL
  0
ACAD_PROXY_OBJECT
  5
AE
330
0
100
AcDbProxyObject
 90
      499
 91
      513
 95
   589845
 70
     0
 93
      156
310
00000141D05350D311D05402B8716D9CEF7C33FF
330
7F
 94
        0
1001
ACAD
1000
AcRTDxfName
1000
SYSTEM_VAR_REAL
  0
ACAD_PROXY_OBJECT
  5
AF
330
0
100
AcDbProxyObject
 90
      499
 91
      513
 95
   589845
 70
     0
 93
      164
310
00000142105350D313D4D2150295C8FC2F528BC3FF
330
7F
 94
        0
1001
ACAD
1000
AcRTDxfName
1000
SYSTEM_VAR_REAL
  0
ACAD_PROXY_OBJECT
  5
B0
330
0
100
AcDbProxyObject
 90
      499
 91
      512
 95
   589845
 70
     0
 93
      100
310
00000141D05350D3141054901F
330
7F
 94
        0
1001
ACAD
1000
AcRTDxfName
1000
SYSTEM_VAR_INT
  0
ACAD_PROXY_OBJECT
  5
B1
330
0
100
AcDbProxyObject
 90
      499
 91
      512
 95
   589845
 70
     0
 93
      100
310
0000014210535590539254D22F
330
7F
 94
        0
1001
ACAD
1000
AcRTDxfName
1000
SYSTEM_VAR_INT
  0
ACAD_PROXY_OBJECT
  5
B2
330
0
100
AcDbProxyObject
 90
      499
 91
      513
 95
   589845
 70
     0
 93
      188
310
00000142D0535312539155121250D2C295C8FC2F5289C3FF
330
7F
 94
        0
1001
ACAD
1000
AcRTDxfName
1000
SYSTEM_VAR_REAL
  0
ACAD_PROXY_OBJECT
  5
B3
330
0
100
AcDbProxyObject
 90
      499
 91
      514
 95
   589845
 70
     0
 93
      156
310
00000142105350D315165411405054D49545445F
330
7F
 94
        0
1001
ACAD
1000
AcRTDxfName
1000
SYSTEM_VAR_STR
  0
ACAD_PROXY_OBJECT
  5
BC
330
0
100
AcDbProxyObject
 90
      499
 91
      512
 95
   589845
 70
     0
 93
      132
310
00000142D05050555513D4D3D31591501F
330
7F
 94
        0
1001
ACAD
1000
AcRTDxfName
1000
SYSTEM_VAR_INT
  0
ACAD_PROXY_OBJECT
  5
BD
330
0
100
AcDbProxyObject
 90
      499
 91
      512
 95
   589845
 70
     0
 93
      156
310
00000143905050555513D054D4D153509311501F
330
7F
 94
        0
1001
ACAD
1000
AcRTDxfName
1000
SYSTEM_VAR_INT
  0
ACAD_PROXY_OBJECT
  5
BE
330
0
100
AcDbProxyObject
 90
      499
 91
      512
 95
   589845
 70
     0
 93
      148
310
00000143505055925155D49154D513D491501F
330
7F
 94
        0
1001
ACAD
1000
AcRTDxfName
1000
SYSTEM_VAR_INT
  0
ACAD_PROXY_OBJECT
  5
BF
330
0
100
AcDbProxyObject
 90
      499
 91
      512
 95
   589845
 70
     0
 93
      124
310
00000142D050525394D15495105094EF
330
7F
 94
        0
1001
ACAD
1000
AcRTDxfName
1000
SYSTEM_VAR_INT
  0
ACAD_PROXY_OBJECT
  5
C6
330
0
100
AcDbProxyObject
 90
      499
 91
      531
 95
   589845
 70
     0
 93
       32
310
0000000000
330
7F
340
C3
330
C7
330
C3
 94
        0
1001
ACAD
1000
AcRTDxfName
1000
ACAMGRCOMPDEF
  0
ACAD_PROXY_OBJECT
  5
C7
330
0
100
AcDbProxyObject
 90
      499
 91
      532
 95
   589845
 70
     0
 93
      143
310
0000014213905351539313D4D0400522080D
330
7F
330
C6
 94
        0
1001
ACAD
1000
AcRTDxfName
1000
ACAMCOMPDEF
  0
ACAD_PROXY_OBJECT
  5
C8
330
0
100
AcDbProxyObject
 90
      499
 91
      533
 95
   589845
 70
     0
 93
       72
310
000000A44101A4410127
330
7F
330
C7
 94
        0
1001
ACAD
1000
AcRTDxfName
1000
ACAMCOMPDEFMGR
  0
ACAD_PROXY_OBJECT
  5
C9
330
0
100
AcDbProxyObject
 90
      499
 91
      534
 95
   589845
 70
     0
 93
       80
310
0000901441010000000000
330
7F
330
CA
330
CA
330
CA
330
CA
 94
        0
1001
ACAD
1000
AcRTDxfName
1000
AMCONTEXTMGR
  0
ACAD_PROXY_OBJECT
  5
CA
330
0
100
AcDbProxyObject
 90
      499
 91
      535
 95
   589845
 70
     0
 93
      173
310
00000000406AAAAAAAAAAAAAAAAA806A44101A441017
330
7F
330
C9
330
C7
 94
        0
1001
ACAD
1000
AcRTDxfName
1000
ACAMCONTEXTMODELER
  0
ACAD_PROXY_OBJECT
  5
CE
330
0
100
AcDbProxyObject
 90
      499
 91
      536
 95
   589845
 70
     0
 93
       26
310
0000803F
330
7F
330
0
 94
        0
1001
ACAD
1000
AcRTDxfName
1000
ACAMDRAWINGMAN
  0
DICTIONARY
  5
27EF
102
{ACAD_REACTORS
330
3B
102
}
330
3B
100
AcDbDictionary
280
     1
281
     1
  3
PH_GRPMEMBERS
360
27F0
  0
DICTIONARY
  5
28BD
102
{ACAD_REACTORS
330
3B
102
}
330
3B
100
AcDbDictionary
280
     1
281
     1
  3
$PH$AAAA
360
28BE
  3
PH_GRPMEMBERS
360
28C2
  0
PH_GROUP
  5
28C5
102
{ACAD_REACTORS
330
3B
102
}
330
3B
  0
DICTIONARY
  5
2976
330
27DE
100
AcDbDictionary
280
     1
281
     1
  3
ACAD_XREC_ROUNDTRIP
360
2977
  0
DICTIONARY
  5
28ED
330
27DD
100
AcDbDictionary
280
     1
281
     1
  3
ACAD_XREC_ROUNDTRIP
360
2975
  3
ADSK_XREC_LAYOUTTHUMBNAIL
360
28EE
  0
DICTIONARY
  5
2791
330
2790
100
AcDbDictionary
280
     1
281
     1
  3
ACAD_XREC_ROUNDTRIP
360
294B
  3
BUMPTILE
360
2793
  3
DIFFUSETILE
360
2792
  3
OPACITYTILE
360
2796
  3
REFLECTIONTILE
360
2795
  3
REFRACTIONTILE
360
2797
  3
SPECULARTILE
360
2794
  0
DICTIONARY
  5
2789
330
2788
100
AcDbDictionary
280
     1
281
     1
  3
ACAD_XREC_ROUNDTRIP
360
294A
  3
BUMPTILE
360
278B
  3
DIFFUSETILE
360
278A
  3
OPACITYTILE
360
278E
  3
REFLECTIONTILE
360
278D
  3
REFRACTIONTILE
360
278F
  3
SPECULARTILE
360
278C
  0
DICTIONARY
  5
2799
330
2798
100
AcDbDictionary
280
     1
281
     1
  3
ACAD_XREC_ROUNDTRIP
360
294C
  3
BUMPTILE
360
279B
  3
DIFFUSETILE
360
279A
  3
OPACITYTILE
360
279E
  3
REFLECTIONTILE
360
279D
  3
REFRACTIONTILE
360
279F
  3
SPECULARTILE
360
279C
  0
DICTIONARY
  5
2944
330
27B6
100
AcDbDictionary
280
     1
281
     1
  3
ACAD_ROUNDTRIP_2008_TABLESTYLE_CELLSTYLEMAP
360
2945
  3
ACAD_XREC_ROUNDTRIP
360
2973
  0
DICTIONARY
  5
2957
330
27A6
100
AcDbDictionary
280
     1
281
     1
  3
ACAD_XREC_ROUNDTRIP
360
2958
  0
DICTIONARY
  5
295B
330
27A8
100
AcDbDictionary
280
     1
281
     1
  3
ACAD_XREC_ROUNDTRIP
360
295C
  0
DICTIONARY
  5
2959
330
27A7
100
AcDbDictionary
280
     1
281
     1
  3
ACAD_XREC_ROUNDTRIP
360
295A
  0
DICTIONARY
  5
2955
330
27A5
100
AcDbDictionary
280
     1
281
     1
  3
ACAD_XREC_ROUNDTRIP
360
2956
  0
DICTIONARY
  5
2963
330
27AC
100
AcDbDictionary
280
     1
281
     1
  3
ACAD_XREC_ROUNDTRIP
360
2964
  0
DICTIONARY
  5
296B
330
27B0
100
AcDbDictionary
280
     1
281
     1
  3
ACAD_XREC_ROUNDTRIP
360
296C
  0
DICTIONARY
  5
295D
330
27A9
100
AcDbDictionary
280
     1
281
     1
  3
ACAD_XREC_ROUNDTRIP
360
295E
  0
DICTIONARY
  5
2961
330
27AB
100
AcDbDictionary
280
     1
281
     1
  3
ACAD_XREC_ROUNDTRIP
360
2962
  0
DICTIONARY
  5
2971
330
27B3
100
AcDbDictionary
280
     1
281
     1
  3
ACAD_XREC_ROUNDTRIP
360
2972
  0
DICTIONARY
  5
2969
330
27AF
100
AcDbDictionary
280
     1
281
     1
  3
ACAD_XREC_ROUNDTRIP
360
296A
  0
DICTIONARY
  5
294D
330
27A1
100
AcDbDictionary
280
     1
281
     1
  3
ACAD_XREC_ROUNDTRIP
360
294E
  0
DICTIONARY
  5
294F
330
27A2
100
AcDbDictionary
280
     1
281
     1
  3
ACAD_XREC_ROUNDTRIP
360
2950
  0
DICTIONARY
  5
2951
330
27A3
100
AcDbDictionary
280
     1
281
     1
  3
ACAD_XREC_ROUNDTRIP
360
2952
  0
DICTIONARY
  5
2953
330
27A4
100
AcDbDictionary
280
     1
281
     1
  3
ACAD_XREC_ROUNDTRIP
360
2954
  0
DICTIONARY
  5
296D
330
27B1
100
AcDbDictionary
280
     1
281
     1
  3
ACAD_XREC_ROUNDTRIP
360
296E
  0
DICTIONARY
  5
2967
330
27AE
100
AcDbDictionary
280
     1
281
     1
  3
ACAD_XREC_ROUNDTRIP
360
2968
  0
DICTIONARY
  5
296F
330
27B2
100
AcDbDictionary
280
     1
281
     1
  3
ACAD_XREC_ROUNDTRIP
360
2970
  0
DICTIONARY
  5
295F
330
27AA
100
AcDbDictionary
280
     1
281
     1
  3
ACAD_XREC_ROUNDTRIP
360
2960
  0
DICTIONARY
  5
2965
330
27AD
100
AcDbDictionary
280
     1
281
     1
  3
ACAD_XREC_ROUNDTRIP
360
2966
  0
PH_GROUP
  5
27F0
102
{ACAD_REACTORS
330
27EF
102
}
330
27EF
  0
DICTIONARY
  5
28BE
102
{ACAD_REACTORS
330
28BD
102
}
330
28BD
100
AcDbDictionary
280
     1
281
     1
  3
$PH$AAAA
360
28BF
  3
PH_GRPMEMBERS
360
28C1
  0
PH_GROUP
  5
28C2
102
{ACAD_REACTORS
330
28BD
102
}
330
28BD
  0
XRECORD
  5
2977
102
{ACAD_REACTORS
330
2976
102
}
330
2976
100
AcDbXrecord
280
     1
102
SHADEPLOT
 70
     0
102
SHADEPLOTRESLEVEL
 70
     2
102
SHADEPLOTCUSTOMDPI
 70
   300
  0
XRECORD
  5
2975
102
{ACAD_REACTORS
330
28ED
102
}
330
28ED
100
AcDbXrecord
280
     1
102
SHADEPLOT
 70
     0
102
SHADEPLOTRESLEVEL
 70
     2
102
SHADEPLOTCUSTOMDPI
 70
   300
  0
XRECORD
  5
28EE
102
{ACAD_REACTORS
330
28ED
102
}
330
28ED
100
AcDbXrecord
280
     1
310
28000000000100008700000001000800000000000087000000000000000000000001000000000000F0FCFE0000000000FFFFFF000000000000000000000000000000000000000000000000000000000000000000330000006600000099000000CC000000FF00000000330000333300006633000099330000CC330000FF3300
310
0000660000336600006666000099660000CC660000FF66000000990000339900006699000099990000CC990000FF99000000CC000033CC000066CC000099CC0000CCCC0000FFCC000000FF000033FF000066FF000099FF0000CCFF0000FFFF000000003300330033006600330099003300CC003300FF003300003333003333
310
33006633330099333300CC333300FF33330000663300336633006666330099663300CC663300FF66330000993300339933006699330099993300CC993300FF99330000CC330033CC330066CC330099CC3300CCCC3300FFCC330000FF330033FF330066FF330099FF3300CCFF3300FFFF330000006600330066006600660099
310
006600CC006600FF00660000336600333366006633660099336600CC336600FF33660000666600336666006666660099666600CC666600FF66660000996600339966006699660099996600CC996600FF99660000CC660033CC660066CC660099CC6600CCCC6600FFCC660000FF660033FF660066FF660099FF6600CCFF6600
310
FFFF660000009900330099006600990099009900CC009900FF00990000339900333399006633990099339900CC339900FF33990000669900336699006666990099669900CC669900FF66990000999900339999006699990099999900CC999900FF99990000CC990033CC990066CC990099CC9900CCCC9900FFCC990000FF99
310
0033FF990066FF990099FF9900CCFF9900FFFF99000000CC003300CC006600CC009900CC00CC00CC00FF00CC000033CC003333CC006633CC009933CC00CC33CC00FF33CC000066CC003366CC006666CC009966CC00CC66CC00FF66CC000099CC003399CC006699CC009999CC00CC99CC00FF99CC0000CCCC0033CCCC0066CC
310
CC0099CCCC00CCCCCC00FFCCCC0000FFCC0033FFCC0066FFCC0099FFCC00CCFFCC00FFFFCC000000FF003300FF006600FF009900FF00CC00FF00FF00FF000033FF003333FF006633FF009933FF00CC33FF00FF33FF000066FF003366FF006666FF009966FF00CC66FF00FF66FF000099FF003399FF006699FF009999FF00CC
310
99FF00FF99FF0000CCFF0033CCFF0066CCFF0099CCFF00CCCCFF00FFCCFF0000FFFF0033FFFF0066FFFF0099FFFF00CCFFFF00FFFFFF00000000000D0D0D001A1A1A00282828003535350043434300505050005D5D5D006B6B6B00787878008686860093939300A1A1A100AEAEAE00BBBBBB00C9C9C900D6D6D600E4E4E400
310
F1F1F100FFFFFF0000000000000000000000000000000000000000000000000000000000000000000000000000000000E1E1E1E1E1E1E1E1E1E1E1E1E1E1E1E1E1E1E1E1E1E1E1E1E1E1E1E1E1E1E1E1E1E1E1E1E1E1E1E1E1E1E1E1E1E1E1E1E1E1E1E1E1E1E1E1E1E1E1E1E1E1E1E1E1E1E1E1E1E1E1E1E1E1E1E1E1E1E1
310
E1BEBEBEBEBEBEBEBEBEBEBEBEBEBEBEBEBEBEBEBEBEBEBEBEBEBEBEBEBEBEBEBEBEBEBEBEBEBEBEBEBEBEBEBEBEBEBEBEBEBEBEBEBEBEBEBEBEBEBEBEBEBEBEBEBEBEBEBEBEBEBEBEBEBEBEBEBEBEBEBEBEBEBEBEBEBEBEBEBEBEBEBEBEBEBEBEE1E1E1E1E1E1E1E1E1E1E1E1E1E1E1E1E1E1E1E1E1E1E1E1E1E1E1E1E1E1
310
E1E1E1E1E1E1E1E1E1E1E1E1E1E1E1E1E1E1E1E1E1E1E1E1E1E1E1E1E1E1E1E1E1E1E1E1E1E1E1E1E1E1E1E1E1E1E1E1E1E1E1E1E1E1E1E1E1E1E1E1E1E1E1E1E1E1E1E1E1E1E1E1E1E1E1E1E1E1E1E1E1E1E1E1E1E1E1E1E1E1E1E1E1E1E1E1E1E1E1E1E1E1E1E1E1E1E1E1E1E1E1E1E1E1E1E1E1E1E1E1E1E1E1E1E1E1E1
310
E1E1E1BEE1E1E1E1E1E1E1E1E1E1E1E1E1E1E1E1E1E1E1E1E1E1E1E1E1E1E1E1E1E1E1E1E1E1E1E1E1E1E1E1E1E1E1E1E1E1E1E1E1E1E1E1E1E1E1E1E1E1E1E1E1E1E1E1E1E1E1E1E1E1E1E1E1E1E1E1E1E1E1E1E1E1E1E1E1E1E1E1E1E1E1E1E1E1BEE1E1E1E1E1E1E1E1E1E1E1E1E1E1E1E1E1E1E1E1E1E1E1E1E1E1E1E1
310
E1E1E1E1E1E1E1E1E1E1E1E1E1E1E1E1E1E1E1E1E1E1E1E1E1E1E1E1E1E1E1E1E1E1E1E1E1E1E1E1E1E1E1E1E1E1E1E1E1E1E1E1E1E1E1E1E1E1E1E1E1E1E1E1E1E1E1E1E1E1E1E1E1E1E1E1E1E1E1E1E1E1E1E1E1E1E1E1E1E1E1E1E1E1E1E1E1E1E1E1E1E1E1E1E1E1E1E1E1E1E1E1E1E1E1E1E1E1E1E1E1E1E1E1E1E1E1
310
E1E1E1E1E1BEE1E1E1E1E1E1E1E128282828282828282828282828282828282828282828282828282828282828282828282828280F28282828282828282828282828282828282828282828282828282828282828282828282828282828282828282828E1BEE1E1E1E1E1E1E1E1E1E1E1E1E1E1E1E1E1E1E1E1E1E1E1E1E1E1
310
E1E1E1E1E1E1E1E1E1E1E1E1E1E1E1E1E1E1E1E1E1E1E1E1E1E1E1E1E1E1E1E1E1E1E1E1E1E1E1E1E1E1E1E1E1E1E1E1E1E1E1E1E1E1E1E1E1E1E1E1E1E1E1E1E1E1E1E1E1E1E1E1E1E1E1E1E1E1E1E1E1E1E1E1E1E1E1E1E1E1E1E1E1E1E1E1E1E1E1E1E1E1E1E1E1E1E1E1E1E1E1E1E1E1E1E1E1E1E1E1E1E1E1E1E1E1E1
310
E1E1E1E1E1E1E1BEE1E1E1E1E1E1E1E128E1E1E1E1E1E1E1E1E1E1E1E1E1E1E1E1E1E1E1E1E1E1E1E1E1E1E1E1E1E1E1E1E1E1E1E1E10F0F0F0F0F0F0F0F0F0F0F0FE10F0F0F0F0F0F0F0F0F0FE1E1E1E1E1E1E1E1E1E1E1E1E1E1E1E1E1E1E1E1E1E1E128E1BEE1E1E1E1E1E1E1E1E1E1E1E1E1E1E1E1E1E1E1E1E1E1E1E1
310
E1E1E1E1E1E1E1E1E1E1E1E1E1E1E1E1E1E1E1E1E1E1E1E1E1E1E1E1E1E1E1E1E1E1E1E1E1E1E1E1E1E1E1E1E1E1E1E1E1E1E1E1E1E1E1E1E1E1E1E1E1E1E1E1E1E1E1E1E1E1E1E1E1E1E1E1E1E1E1E1E1E1E1E1E1E1E1E1E1E1E1E1E1E1E1E1E1E1E1E1E1E1E1E1E1E1E1E1E1E1E1E1E1E1E1E1E1E1E1E1E1E1E1E1E1E1E1
310
E1E1E1E1E1E1E1E1E1BEE1E1E1E1E1E1E1E128E1E1E1E1E1E1E1E1E1E1E1E1E1E1E1E1E1E1E1E1E1E1E1E1E1E1E1E1E1E1E1E1E1E1E1E1E10F0F0F0F0F0F0F0F0F0F0F0FE10F0F0F0F0F0F0F0F0F0FE1E1E1E1E1E1E1E1E1E1E1E1E1E1E1E1E1E1E1E1E1E1E128E1BEE1E1E1E1E1E1E1E1E1E1E1E1E1E1E1E1E1E1E1E1E1E1
310
E1E1E1E1E1E1E1E1E1E1E1E1E1E1E1E1E1E1E1E1E1E1E1E1E1E1E1E1E1E1E1E1E1E1E1E1E1E1E1E1E1E1E1E1E1E1E1E1E1E1E1E1E1E1E1E1E1E1E1E1E1E1E1E1E1E1E1E1E1E1E1E1E1E1E1E1E1E1E1E1E1E1E1E1E1E1E1E1E1E1E1E1E1E1E1E1E1E1E1E1E1E1E1E1E1E1E1E1E1E1E1E1E1E1E1E1E1E1E1E1E1E1E1E1E1E1E1
310
E1E1E1E1E1E1E1E1E1E1E1BEE1E1E1E1E1E1E1E128E1E1E1E1E1E1E1E1E1E1E1E1E1E1E1E1E1E1E1E1E1E1E1E1E1E1E1E1E1E1E1E1E1E1E1E1E10F0F0F0F0F0FE1E1E1E1E1E1E10F0F0F0F0F0F0F0FE1E1E1E1E1E1E1E1E1E1E1E1E1E1E1E1E1E1E1E1E1E1E1E1E128E1BEE1E1E1E1E1E1E1E1E1E1E1E1E1E1E1E1E1E1E1E1
310
E1E1E1E1E1E1E1E1E1E1E1E1E1E1E1E1E1E1E1E1E1E1E1E1E1E1E1E1E1E1E1E1E1E1E1E1E1E1E1E1E1E1E1E1E1E1E1E1E1E1E1E1E1E1E1E1E1E1E1E1E1E1E1E1E1E1E1E1E1E1E1E1E1E1E1E1E1E1E1E1E1E1E1E1E1E1E1E1E1E1E1E1E1E1E1E1E1E1E1E1E1E1E1E1E1E1E1E1E1E1E1E1E1E1E1E1E1E1E1E1E1E1E1E1E1E1E1
310
E1E1E1E1E1E1E1E1E1E1E1E1E1BEE1E1E1E1E1E1E1E128E1E1E1E1E1E1E1E1E1E1E1E1E1E1E1E1E1E1E1E1E1E1E1E1E1E1E1E1E1E1E1E1E1E1E1E1E10F0F0F0F0FE1E1E1E1E1E1E1E10F0F0F0F0F0F0F0FE1E1E1E1E1E1E1E1E1E1E1E1E1E1E1E1E1E1E1E1E1E1E1E1E128E1BEE1E1E1E1E1E1E1E1E1E1E1E1E1E1E1E1E1E1
310
E1E1E1E1E1E1E1E1E1E1E1E1E1E1E1E1E1E1E1E1E1E1E1E1E1E1E1E1E1E1E1E1E1E1E1E1E1E1E1E1E1E1E1E1E1E1E1E1E1E1E1E1E1E1E1E1E1E1E1E1E1E1E1E1E1E1E1E1E1E1E1E1E1E1E1E1E1E1E1E1E1E1E1E1E1E1E1E1E1E1E1E1E1E1E1E1E1E1E1E1E1E1E1E1E1E1E1E1E1E1E1E1E1E1E1E1E1E1E1E1E1E1E1E1E1E1E1
310
E1E1E1E1E1E1E1E1E1E1E1E1E1E1E1BEE1E1E1E1E1E1E1E128E1E1E1E1E1E1E1E1E1E1E1E1E1E1E1E1E1E1E1E1E1E1E1E1E1E1E1E1E1E1E1E1E1E1E1E1E10F0F0F0F0F0FBE0F0F0F0F0F0F0F0F0F0F0F0F0F0F0F0F0F0F0F0F0F0F0F0F0F0F0F0F0F0F0F0F0F0F0F0F0F0F0F0FE1BEE1E1E1E1E1E1E1E1E1E1E1E1E1E1E1E1
310
E1E1E1E1E1E1E1E1E1E1E1E1E1E1E1E1E1E1E1E1E1E1E1E1E1E1E1E1E1E1E1E1E1E1E1E1E1E1E1E1E1E1E1E1E1E1E1E1E1E1E1E1E1E1E1E1E1E1E1E1E1E1E1E1E1E1E1E1E1E1E1E1E1E1E1E1E1E1E1E1E1E1E1E1E1E1E1E1E1E1E1E1E1E1E1E1E1E1E1E1E1E1E1E1E1E1E1E1E1E1E1E1E1E1E1E1E1E1E1E1E1E1E1E1E1E1E1
310
E1E1E1E1E1E1E1E1E1E1E1E1E1E1E1E1E1BEE1E1E1E1E1E1E1E128E1E1E1E1E1E1E1E1E1E1E1E1E1E1E1E1E1E1E1E1E1E1E1E1E1E1E1E1E1E1E1E1E1E1E1E1E10FBEBEBEBEBEBEBEBEBEBEE1E1E1E1E10FE1E1E1E1E1E1E1E1E1E1E1E1E1E1BEBEBEBEBEBEBEBEBEBEBEBEBEBEE128E1BEE1E1E1E1E1E1E1E1E1E1E1E1E1E1
310
E1E1E1E1E1E1E1E1E1E1E1E1E1E1E1E1E1E1E1E1E1E1E1E1E1E1E1E1E1E1E1E1E1E1E1E1E1E1E1E1E1E1E1E1E1E1E1E1E1E1E1E1E1E1E1E1E1E1E1E1E1E1E1E1E1E1E1E1E1E1E1E1E1E1E1E1E1E1E1E1E1E1E1E1E1E1E1E1E1E1E1E1E1E1E1E1E1E1E1E1E1E1E1E1E1E1E1E1E1E1E1E1E1E1E1E1E1E1E1E1E1E1E1E1E1E1E1
310
E1E1E1E1E1E1E1E1E1E1E1E1E1E1E1E1E1E1E1BEE1E1E1E1E1E1E1E128E1E1E1E1E1E1E1E1E1E1E1E1E1E1E1E1E1E1E1E1E1E1E1E1E1E1E1E1E1E1E1E1E1E1E1E1E10FBEBEBEBEE1BEBEBEBEBEBEBEE1E1E10FE1E1E1E1E1E1E1E1E1E1E1E1E1E1E1E1E1E1E1E2E2E2E2E2E2E2E2E2E128E1BEE1E1E1E1E1E1E1E1E1E1E1E1
310
E1E1E1E1E1E1E1E1E1E1E1E1E1E1E1E1E1E1E1E1E1E1E1E1E1E1E1E1E1E1E1E1E1E1E1E1E1E1E1E1E1E1E1E1E1E1E1E1E1E1E1E1E1E1E1E1E1E1E1E1E1E1E1E1E1E1E1E1E1E1E1E1E1E1E1E1E1E1E1E1E1E1E1E1E1E1E1E1E1E1E1E1E1E1E1E1E1E1E1E1E1E1E1E1E1E1E1E1E1E1E1E1E1E1E1E1E1E1E1E1E1E1E1E1E1E1E1
310
E1E1E1E1E1E1E1E1E1E1E1E1E1E1E1E1E1E1E1E1E1BEE1E1E1E1E1E1E1E128E1E1E1E1E1E1E1E1E1E1E1E1E1E1E1E1E1E1E1E1E1E1E1E1E1E1E1E1E1E1E1E1E1E1E1E1E10FBEBEBEBEBEBEBEBEBEBEBEBEBEBEBEBEE1E1E1E1E1E1E1E1E1E1E1E1E1E1E1E1E1E1E1E2E2E2E2E2E2E2E2E2E128E1BEE1E1E1E1E1E1E1E1E1E1
310
E1E1E1E1E1E1E1E1E1E1E1E1E1E1E1E1E1E1E1E1E1E1E1E1E1E1E1E1E1E1E1E1E1E1E1E1E1E1E1E1E1E1E1E1E1E1E1E1E1E1E1E1E1E1E1E1E1E1E1E1E1E1E1E1E1E1E1E1E1E1E1E1E1E1E1E1E1E1E1E1E1E1E1E1E1E1E1E1E1E1E1E1E1E1E1E1E1E1E1E1E1E1E1E1E1E1E1E1E1E1E1E1E1E1E1E1E1E1E1E1E1E1E1E1E1E1E1
310
E1E1E1E1E1E1E1E1E1E1E1E1E1E1E1E1E1E1E1E1E1E1E1BEE1E1E1E1E1E1E1E128E1E1E1E1E1E1E1E1E1E1E1E1E1E1E1E1E1E1E1E1E1E1E1E1E1E1E1E1E1E1E1E1E1E1E1E1E10FBEBEE1E1E1BEBEBEE1E1E1E1E1E1E10FE1E1E1E1E1E1E1E1E1E1E1E1E1E1E1E1E1E1E1E2E2E2E2E2E2E2E2E2E128E1BEE1E1E1E1E1E1E1E1
310
E1E1E1E1E1E1E1E1E1E1E1E1E1E1E1E1E1E1E1E1E1E1E1E1E1E1E1E1E1E1E1E1E1E1E1E1E1E1E1E1E1E1E1E1E1E1E1E1E1E1E1E1E1E1E1E1E1E1E1E1E1E1E1E1E1E1E1E1E1E1E1E1E1E1E1E1E1E1E1E1E1E1E1E1E1E1E1E1E1E1E1E1E1E1E1E1E1E1E1E1E1E1E1E1E1E1E1E1E1E1E1E1E1E1E1E1E1E1E1E1E1E1E1E1E1E1E1
310
E1E1E1E1E1E1E1E1E1E1E1E1E1E1E1E1E1E1E1E1E1E1E1E1E1BEE1E1E1E1E1E1E1E128E1E1E1E1E1E1E1E1E1E1E1E1E1E1E1E1E1E1E1E1E1E1E1E1E1E1E1E1E1E1E1E1E1E1E1E1E10FBEBEE1E1E1BEBEBEE1E1E1E1E1E1E10FE1E1E1E1E1E1E1E1E1E1E1E1E1E1E1E1E1E1E1E1E1E1BEE2E2E2E2E2E228E1BEE1E1E1E1E1E1
310
E1E1E1E1E1E1E1E1E1E1E1E1E1E1E1E1E1E1E1E1E1E1E1E1E1E1E1E1E1E1E1E1E1E1E1E1E1E1E1E1E1E1E1E1E1E1E1E1E1E1E1E1E1E1E1E1E1E1E1E1E1E1E1E1E1E1E1E1E1E1E1E1E1E1E1E1E1E1E1E1E1E1E1E1E1E1E1E1E1E1E1E1E1E1E1E1E1E1E1E1E1E1E1E1E1E1E1E1E1E1E1E1E1E1E1E1E1E1E1E1E1E1E1E1E1E1E1
310
E1E1E1E1E1E1E1E1E1E1E1E1E1E1E1E1E1E1E1E1E1E1E1E1E1E1E1BEE1E1E1E1E1E1E1E128E1E1E1E1E1E1E1E1E1E1E1E1E1E1E1E1E1E1E1E1E1E1E1E1E1E1E1E1E1E1E1E1E1E1E1E1E10FBEBEE1E1E1BEBEBEE1E1E1E1E1E1E10FE1E1E1E1E1E1E1E1E1E1E1E1E1E1E1E1E1E1E1E1BEBEBEBEE2BEE2BEE228E1BEE1E1E1E1
310
E1E1E1E1E1E1E1E1E1E1E1E1E1E1E1E1E1E1E1E1E1E1E1E1E1E1E1E1E1E1E1E1E1E1E1E1E1E1E1E1E1E1E1E1E1E1E1E1E1E1E1E1E1E1E1E1E1E1E1E1E1E1E1E1E1E1E1E1E1E1E1E1E1E1E1E1E1E1E1E1E1E1E1E1E1E1E1E1E1E1E1E1E1E1E1E1E1E1E1E1E1E1E1E1E1E1E1E1E1E1E1E1E1E1E1E1E1E1E1E1E1E1E1E1E1E1E1
310
E1E1E1E1E1E1E1E1E1E1E1E1E1E1E1E1E1E1E1E1E1E1E1E1E1E1E1E1E1BEE1E1E1E1E1E1E1E128E1E1E1E1E1E1E1E1E1E1E1E1E1E1E1E1E1E1E1E1E1E1E1E1E1E1E1E1E1E1E1E1E1E1E1E1E10FBEBEE1E1E1BEBEBEE1E1E1E1E1E1E10FE1E1E1E1E1E1E1E1E1E1E1E1E1E1E1E1E1E1E1E1BEBEBEBEBEE2E2E2E228E1BEE1E1
310
E1E1E1E1E1E1E1E1E1E1E1E1E1E1E1E1E1E1E1E1E1E1E1E1E1E1E1E1E1E1E1E1E1E1E1E1E1E1E1E1E1E1E1E1E1E1E1E1E1E1E1E1E1E1E1E1E1E1E1E1E1E1E1E1E1E1E1E1E1E1E1E1E1E1E1E1E1E1E1E1E1E1E1E1E1E1E1E1E1E1E1E1E1E1E1E1E1E1E1E1E1E1E1E1E1E1E1E1E1E1E1E1E1E1E1E1E1E1E1E1E1E1E1E1E1E1E1
310
E1E1E1E1E1E1E1E1E1E1E1E1E1E1E1E1E1E1E1E1E1E1E1E1E1E1E1E1E1E1E1BEE1E1E1E1E1E1E1E128E1E1E1E1E1E1E1E1E1E1E1E1E1E1E1E1E1E1E1E1E1E1E1E1E1E1E1E1E1E1E1E1E1E1E1E1E10FBEBEE1E1E1BEBEBEE1E1E1E1E1E1E10FE1E1E1E1E1E1E1E1E1E1E1E1E1E1E1E1E1E1E1E1BEBEBEBEBEE2E2E2E228E1BE
310
E1E1E1E1E1E1E1E1E1E1E1E1E1E1E1E1E1E1E1E1E1E1E1E1E1E1E1E1E1E1E1E1E1E1E1E1E1E1E1E1E1E1E1E1E1E1E1E1E1E1E1E1E1E1E1E1E1E1E1E1E1E1E1E1E1E1E1E1E1E1E1E1E1E1E1E1E1E1E1E1E1E1E1E1E1E1E1E1E1E1E1E1E1E1E1E1E1E1E1E1E1E1E1E1E1E1E1E1E1E1E1E1E1E1E1E1E1E1E1E1E1E1E1E1E1E1E1
310
E1E1E1E1E1E1E1E1E1E1E1E1E1E1E1E1E1E1E1E1E1E1E1E1E1E1E1E1E1E1E1E1E1BEE1E1E1E1E1E1E1E128E1E1E1E1E1E1E1E1E1E1E1E1E1E1E1E1E1E1E1E1E1E1E1E1E1E1E1E1E1E1E1E1E1E1E1E1E10FBEBEE1E1E1BEBEBEE1E1E1E1E1E1E10FE1E1E1E1E1E1E1E1E1E1E1E1E1E1E1E1E1E1E1E1E1BEBEBEBEBEE2E1E228
310
E1BEE1E1E1E1E1E1E1E1E1E1E1E1E1E1E1E1E1E1E1E1E1E1E1E1E1E1E1E1E1E1E1E1E1E1E1E1E1E1E1E1E1E1E1E1E1E1E1E1E1E1E1E1E1E1E1E1E1E1E1E1E1E1E1E1E1E1E1E1E1E1E1E1E1E1E1E1E1E1E1E1E1E1E1E1E1E1E1E1E1E1E1E1E1E1E1E1E1E1E1E1E1E1E1E1E1E1E1E1E1E1E1E1E1E1E1E1E1E1E1E1E1E1E1E1E1
310
E1E1E1E1E1E1E1E1E1E1E1E1E1E1E1E1E1E1E1E1E1E1E1E1E1E1E1E1E1E1E1E1E1E1E1BEE1E1E1E1E1E1E1E128E1E1E1E1E1E1E1E1E1E1E1E1E1E1E1E1E1E1E1E1E1E1E1E1E1E1E1E1E1E1E1E1E1E1E1E1E10FBEBEE1E1E1BEBEBEE1E1E1E1E1E1E10FE1E1E1E1E1E1E1E1E1E1E1E1E1E1E1E1E1E1E1E1E1E1E1E1E1E1E1E1
310
E128E1BEE1E1E1E1E1E1E1E1E1E1E1E1E1E1E1E1E1E1E1E1E1E1E1E1E1E1E1E1E1E1E1E1E1E1E1E1E1E1E1E1E1E1E1E1E1E1E1E1E1E1E1E1E1E1E1E1E1E1E1E1E1E1E1E1E1E1E1E1E1E1E1E1E1E1E1E1E1E1E1E1E1E1E1E1E1E1E1E1E1E1E1E1E1E1E1E1E1E1E1E1E1E1E1E1E1E1E1E1E1E1E1E1E1E1E1E1E1E1E1E1E1E1E1
310
E1E1E1E1E1E1E1E1E1E1E1E1E1E1E1E1E1E1E1E1E1E1E1E1E1E1E1E1E1E1E1E1E1E1E1E1E1BEE1E1E1E1E1E1E1E128E1E1E1E1E1E1E1E1E1E1E1E1E1E1E1E1E1E1E1E1E1E1E1E1E1E1E1E1E1E1E1E1E1E1E1E1E10FE1E1E1E1E1BEE1E1E1E1E1E1E1E1E10FE1E1E1E1E1E1E1E1E1E1E1E1E1E1E1E1E1E1E1E1E1E1E1E1E1E1
310
E1E1E128E1BEE1E1E1E1E1E1E1E1E1E1E1E1E1E1E1E1E1E1E1E1E1E1E1E1E1E1E1E1E1E1E1E1E1E1E1E1E1E1E1E1E1E1E1E1E1E1E1E1E1E1E1E1E1E1E1E1E1E1E1E1E1E1E1E1E1E1E1E1E1E1E1E1E1E1E1E1E1E1E1E1E1E1E1E1E1E1E1E1E1E1E1E1E1E1E1E1E1E1E1E1E1E1E1E1E1E1E1E1E1E1E1E1E1E1E1E1E1E1E1E1E1
310
E1E1E1E1E1E1E1E1E1E1E1E1E1E1E1E1E1E1E1E1E1E1E1E1E1E1E1E1E1E1E1E1E1E1E1E1E1E1E1BEE1E1E1E1E1E1E1E128E1E1E1E1E1E1E1E1E1E1E1E1E1E1E1E1E1E1E1E1E1E1E1E1E1E1E1E1E1E1E1E1E1E1E1E1E10FBEBEE1E1E1BEBEBEE1E1E1E1E1E1E10FE1E1E1E1E1E1E1E1E1E1E1E1E1E1E1E1E1E1E1E1E1E1E1E1
310
E1E1E1E1E128E1BEE1E1E1E1E1E1E1E1E1E1E1E1E1E1E1E1E1E1E1E1E1E1E1E1E1E1E1E1E1E1E1E1E1E1E1E1E1E1E1E1E1E1E1E1E1E1E1E1E1E1E1E1E1E1E1E1E1E1E1E1E1E1E1E1E1E1E1E1E1E1E1E1E1E1E1E1E1E1E1E1E1E1E1E1E1E1E1E1E1E1E1E1E1E1E1E1E1E1E1E1E1E1E1E1E1E1E1E1E1E1E1E1E1E1E1E1E1E1E1
310
E1E1E1E1E1E1E1E1E1E1E1E1E1E1E1E1E1E1E1E1E1E1E1E1E1E1E1E1E1E1E1E1E1E1E1E1E1E1E1E1E1BEE1E1E1E1E1E1E1E128E1E1E1E1E1E1E1E1E1E1E1E1E1E1E1E1E1E1E1E1E1E1E1E1E1E1E1E1E1E1E1E1E1E1E1E1E10FBEBEE1E1E1BEBEBEE1E1E1E1E1E1E10FE1E1E1E1E1E1E1E1E1E1E1E1E1E1E1E1E1E1E1E1E1E1
310
E1E1E1E1E1E1E128E1BEE1E1E1E1E1E1E1E1E1E1E1E1E1E1E1E1E1E1E1E1E1E1E1E1E1E1E1E1E1E1E1E1E1E1E1E1E1E1E1E1E1E1E1E1E1E1E1E1E1E1E1E1E1E1E1E1E1E1E1E1E1E1E1E1E1E1E1E1E1E1E1E1E1E1E1E1E1E1E1E1E1E1E1E1E1E1E1E1E1E1E1E1E1E1E1E1E1E1E1E1E1E1E1E1E1E1E1E1E1E1E1E1E1E1E1E1E1
310
E1E1E1E1E1E1E1E1E1E1E1E1E1E1E1E1E1E1E1E1E1E1E1E1E1E1E1E1E1E1E1E1E1E1E1E1E1E1E1E1E1E1E1BEE1E1E1E1E1E1E1E128E1E1E1E1E1E1E1E1E1E1E1E1E1E1E1E1E1E1E1E1E1E1E1E1E1E1E1E1E1E1E1E1E1E1E1E1E10F0FBEE1E1E1BEBEBEE1E1E1E1E1E1E10FE1E1E1E1E1E1E1E1E1E1E1E1E1E1E1E1E1E1E1E1
310
E1E1E1E1E1E1E1E1E128E1BEE1E1E1E1E1E1E1E1E1E1E1E1E1E1E1E1E1E1E1E1E1E1E1E1E1E1E1E1E1E1E1E1E1E1E1E1E1E1E1E1E1E1E1E1E1E1E1E1E1E1E1E1E1E1E1E1E1E1E1E1E1E1E1E1E1E1E1E1E1E1E1E1E1E1E1E1E1E1E1E1E1E1E1E1E1E1E1E1E1E1E1E1E1E1E1E1E1E1E1E1E1E1E1E1E1E1E1E1E1E1E1E1E1E1E1
310
E1E1E1E1E1E1E1E1E1E1E1E1E1E1E1E1E1E1E1E1E1E1E1E1E1E1E1E1E1E1E1E1E1E1E1E1E1E1E1E1E1E1E1E1E1BEE1E1E1E1E1E1E1E128E1E1E1E1E1E1E1E1E1E1E1E1E1E1E1E1E1E1E1E1E1E1E1E1E1E1E1E1E1E1E1E1E1E1E1E1E10F0F0F0F0F0F0F0F0F0F0F0F0F0F0F0F0F0F0F0F0F0F0F0F0F0F0F0F0F0F0F0F0F0F0F
310
0F0F0F0F0F0F0F0F0F0F0F0FE1BEE1E1E1E1E1E1E1E1E1E1E1E1E1E1E1E1E1E1E1E1E1E1E1E1E1E1E1E1E1E1E1E1E1E1E1E1E1E1E1E1E1E1E1E1E1E1E1E1E1E1E1E1E1E1E1E1E1E1E1E1E1E1E1E1E1E1E1E1E1E1E1E1E1E1E1E1E1E1E1E1E1E1E1E1E1E1E1E1E1E1E1E1E1E1E1E1E1E1E1E1E1E1E1E1E1E1E1E1E1E1E1E1E1
310
E1E1E1E1E1E1E1E1E1E1E1E1E1E1E1E1E1E1E1E1E1E1E1E1E1E1E1E1E1E1E1E1E1E1E1E1E1E1E1E1E1E1E1E1E1E1E1BEE1E1E1E1E1E1E1E128E1E1E1E1E1E1E1E1E1E1E1E1E1E1E1E1E1E1E1E1E1E1E1E1E1E1E1E1E1E1E1E1E1E1E1E1E10FE1E1E1E1E1E1E1E1E1E1E1E1E1E1E1E1E1E1E1E1E1E1E1E1E1E1E1E1E1E1E1E1
310
E1E1E1E1E1E1E1E1E1E1E1E1E128E1BEE1E1E1E1E1E1E1E1E1E1E1E1E1E1E1E1E1E1E1E1E1E1E1E1E1E1E1E1E1E1E1E1E1E1E1E1E1E1E1E1E1E1E1E1E1E1E1E1E1E1E1E1E1E1E1E1E1E1E1E1E1E1E1E1E1E1E1E1E1E1E1E1E1E1E1E1E1E1E1E1E1E1E1E1E1E1E1E1E1E1E1E1E1E1E1E1E1E1E1E1E1E1E1E1E1E1E1E1E1E1E1
310
E1E1E1E1E1E1E1E1E1E1E1E1E1E1E1E1E1E1E1E1E1E1E1E1E1E1E1E1E1E1E1E1E1E1E1E1E1E1E1E1E1E1E1E1E1E1E1E1E1BEE1E1E1E1E1E1E1E128E1E1E1E1E1E1E1E1E1E1E1E1E1E1E1E1E1E1E1E1E1E1E1E1E1E1E1E1E1E1E1E1E1E1E1E1E10FE1E2E2E2E2E2E2E2E2E2E2E2E2E2E2E2E2E2E2E2E2E2E2E2E2E1E1E1E1E1
310
E1E1E1E1E1E1E1E1E1E1E1E1E1E1E128E1BEE1E1E1E1E1E1E1E1E1E1E1E1E1E1E1E1E1E1E1E1E1E1E1E1E1E1E1E1E1E1E1E1E1E1E1E1E1E1E1E1E1E1E1E1E1E1E1E1E1E1E1E1E1E1E1E1E1E1E1E1E1E1E1E1E1E1E1E1E1E1E1E1E1E1E1E1E1E1E1E1E1E1E1E1E1E1E1E1E1E1E1E1E1E1E1E1E1E1E1E1E1E1E1E1E1E1E1E1E1
310
E1E1E1E1E1E1E1E1E1E1E1E1E1E1E1E1E1E1E1E1E1E1E1E1E1E1E1E1E1E1E1E1E1E1E1E1E1E1E1E1E1E1E1E1E1E1E1E1E1E1E1BEE1E1E1E1E1E1E1BE28E1E1E1E1E1E1E1E1E1E1E1E1E1E1E1E1E1E1E1E1E1E1E1E1E1E1E1E1E1E1E1E1E1E1E1E1E10FE1E2E2E2E2E2E2E2E2E2E2E2E2E2E2E2E2E2E2E2E2E2E2E2E2E2E1E1
310
E1E1E1E1E1E1E1E1E1E1E1E1E1E1E1E1E128E1BEE1E1E1E1E1E1E1E1E1E1E1E1E1E1E1E1E1E1E1E1E1E1E1E1E1E1E1E1E1E1E1E1E1E1E1E1E1E1E1E1E1E1E1E1E1E1E1E1E1E1E1E1E1E1E1E1E1E1E1E1E1E1E1E1E1E1E1E1E1E1E1E1E1E1E1E1E1E1E1E1E1E1E1E1E1E1E1E1E1E1E1E1E1E1E1E1E1E1E1E1E1E1E1E1E1E1E1
310
E1E1E1E1E1E1E1E1E1E1E1E1E1E1E1E1E1E1E1E1E1E1E1E1E1E1E1E1E1E1E1E1E1E1E1E1E1E1E1E1E1E1E1E1E1E1E1E1E1E1E1E1E1BEE1E1E1E1E1E1E1BE28E1E1E1E1E1E1E1E1E1E1E1E1E1E1E1E1E1E1E1E1E1E1E1E1E1E1E1E1E1E1E1E1E1E1E1E1E10FE1E1E2E2E1E2E1E1E2E1E1E1E1E1E1E1E1E2E1E1E1E1E2E1E1E1
310
E1E1E1E1E1E1E1E1E1E1E1E1E1E1E1E1E1E1E128E1BEE1E1E1E1E1E1E1E1E1E1E1E1E1E1E1E1E1E1E1E1E1E1E1E1E1E1E1E1E1E1E1E1E1E1E1E1E1E1E1E1E1E1E1E1E1E1E1E1E1E1E1E1E1E1E1E1E1E1E1E1E1E1E1E1E1E1E1E1E1E1E1E1E1E1E1E1E1E1E1E1E1E1E1E1E1E1E1E1E1E1E1E1E1E1E1E1E1E1E1E1E1E1E1E1E1
310
E1E1E1E1E1E1E1E1E1E1E1E1E1E1E1E1E1E1E1E1E1E1E1E1E1E1E1E1E1E1E1E1E1E1E1E1E1E1E1E1E1E1E1E1E1E1E1E1E1E1E1E1E1E1E1BEE1E1E1E1E1E1E1BE28E1E1E1E1E1E1E1E1E1E1E1E1E1E1E1E1E1E1E1E1E1E1E1E1E1E1E1E1E1E1E1E1E1E1E1E1E10FE1E2E2E2E2E2E2E2E2E2E2E2E2E2E2E2E2E2E2E2E2E2E2E2
310
E2E1E1E1E1E1E1E1E1E1E1E1E1E1E1E1E1E1E1E1E128E1BEE1E1E1E1E1E1E1E1E1E1E1E1E1E1E1E1E1E1E1E1E1E1E1E1E1E1E1E1E1E1E1E1E1E1E1E1E1E1E1E1E1E1E1E1E1E1E1E1E1E1E1E1E1E1E1E1E1E1E1E1E1E1E1E1E1E1E1E1E1E1E1E1E1E1E1E1E1E1E1E1E1E1E1E1E1E1E1E1E1E1E1E1E1E1E1E1E1E1E1E1E1E1E1
310
E1E1E1E1E1E1E1E1E1E1E1E1E1E1E1E1E1E1E1E1E1E1E1E1E1E1E1E1E1E1E1E1E1E1E1E1E1E1E1E1E1E1E1E1E1E1E1E1E1E1E1E1E1E1E1E1E1BEE1E1E1E1E1E1E1BE28E1E1E1E1E1E1E1E1E1E1E1E1E1E1E1E1E1E1E1E1E1E1E1E1E1E1E1E1E1E1E1E1E1E1E1E1E10FE1E2E2E2E2E2E2E2E2E2E2E2E2E2E2E2E2E2E2E2E2E2
310
E2E2E1E2E1E1E1E1E1E1E1E1E1E1E1E1E1E1E1E1E1E1E128E1BEE1E1E1E1E1E1E1E1E1E1E1E1E1E1E1E1E1E1E1E1E1E1E1E1E1E1E1E1E1E1E1E1E1E1E1E1E1E1E1E1E1E1E1E1E1E1E1E1E1E1E1E1E1E1E1E1E1E1E1E1E1E1E1E1E1E1E1E1E1E1E1E1E1E1E1E1E1E1E1E1E1E1E1E1E1E1E1E1E1E1E1E1E1E1E1E1E1E1E1E1E1
310
E1E1E1E1E1E1E1E1E1E1E1E1E1E1E1E1E1E1E1E1E1E1E1E1E1E1E1E1E1E1E1E1E1E1E1E1E1E1E1E1E1E1E1E1E1E1E1E1E1E1E1E1E1E1E1E1E1E1E1BEE1E1E1E1E1E1E1BE28E1E1E1E1E1E1E1E1E1E1E1E1E1E1E1E1E1E1E1E1E1E1E1E1E1E1E1E1E1E1E1E1E1E1E1E1E10FE1E2E2E1E1E2E1E2E1E1E1E1E1E1E2E1E2E1E1E1
310
E1E1E1E1E1E2E1E1E1E1E1E1E1E1E1E1E1E1E1E1E1E1E1E1E128E1BEE1E1E1E1E1E1E1E1E1E1E1E1E1E1E1E1E1E1E1E1E1E1E1E1E1E1E1E1E1E1E1E1E1E1E1E1E1E1E1E1E1E1E1E1E1E1E1E1E1E1E1E1E1E1E1E1E1E1E1E1E1E1E1E1E1E1E1E1E1E1E1E1E1E1E1E1E1E1E1E1E1E1E1E1E1E1E1E1E1E1E1E1E1E1E1E1E1E1E1
310
E1E1E1E1E1E1E1E1E1E1E1E1E1E1E1E1E1E1E1E1E1E1E1E1E1E1E1E1E1E1E1E1E1E1E1E1E1E1E1E1E1E1E1E1E1E1E1E1E1E1E1E1E1E1E1E1E1E1E1E1E1BEE1E1E1E1E1E1E1BE28E1E1E1E1E1E1E1E1E1E1E1E1E1E1E1E1E1E1E1E1E1E1E1E1E1E1E1E1E1E1E1E1E1E1E1E1E10FE1E2E2E2E2E1E2E2E2E2E1E2E2E2E2E2E1E2
310
E2E1E2E1E2E2E1E1E2E2E2E2E2E2E1E1E1E1E1E1E1E1E1E1E1E1E128E1BEE1E1E1E1E1E1E1E1E1E1E1E1E1E1E1E1E1E1E1E1E1E1E1E1E1E1E1E1E1E1E1E1E1E1E1E1E1E1E1E1E1E1E1E1E1E1E1E1E1E1E1E1E1E1E1E1E1E1E1E1E1E1E1E1E1E1E1E1E1E1E1E1E1E1E1E1E1E1E1E1E1E1E1E1E1E1E1E1E1E1E1E1E1E1E1E1E1
310
E1E1E1E1E1E1E1E1E1E1E1E1E1E1E1E1E1E1E1E1E1E1E1E1E1E1E1E1E1E1E1E1E1E1E1E1E1E1E1E1E1E1E1E1E1E1E1E1E1E1E1E1E1E1E1E1E1E1E1E1E1E1E1BEE1E1E1E1E1E1E1BE28E1E1E1E1E1E1E1E1E1E1E1E1E1E1E1E1E1E1E1E1E1E1E1E1E1E1E1E1E1E1E1E1E1E1E1E1E10FE1E1E2E2E2E1E2E2E2E2E1E1E2E2E2E2
310
E1E2E2E1E2E2E2E1E2E2E2E2E2E2E2E2E1E1E1E1E1E1E1E1E1E1E1E1E128E1BEE1E1E1E1E1E1E1E1E1E1E1E1E1E1E1E1E1E1E1E1E1E1E1E1E1E1E1E1E1E1E1E1E1E1E1E1E1E1E1E1E1E1E1E1E1E1E1E1E1E1E1E1E1E1E1E1E1E1E1E1E1E1E1E1E1E1E1E1E1E1E1E1E1E1E1E1E1E1E1E1E1E1E1E1E1E1E1E1E1E1E1E1E1E1E1
310
E1E1E1E1E1E1E1E1E1E1E1E1E1E1E1E1E1E1E1E1E1E1E1E1E1E1E1E1E1E1E1E1E1E1E1E1E1E1E1E1E1E1E1E1E1E1E1E1E1E1E1E1E1E1E1E1E1E1E1E1E1E1E1E1E1BEE1E1E1E1E1E1E1BE28E1E1E1E1E1E1E1E1E1E1E1E1E1E1E1E1E1E1E1E1E1E1E1E1E1E1E1E1E1E1E1E1E1E1E1E1E10FE1E1E2E2E2E2E2E2E2E2E1E1E2E2
310
E1E2E2E1E2E2E2E1E1E1E1E2E2E2E2E2E2E1E1E1E1E1E1E1E1E1E1E1E1E1E128E1BEE1E1E1E1E1E1E1E1E1E1E1E1E1E1E1E1E1E1E1E1E1E1E1E1E1E1E1E1E1E1E1E1E1E1E1E1E1E1E1E1E1E1E1E1E1E1E1E1E1E1E1E1E1E1E1E1E1E1E1E1E1E1E1E1E1E1E1E1E1E1E1E1E1E1E1E1E1E1E1E1E1E1E1E1E1E1E1E1E1E1E1E1E1
310
E1E1E1E1E1E1E1E1E1E1E1E1E1E1E1E1E1E1E1E1E1E1E1E1E1E1E1E1E1E1E1E1E1E1E1E1E1E1E1E1E1E1E1E1E1E1E1E1E1E1E1E1E1E1E1E1E1E1E1E1E1E1E1E1E1E1E1BEE1E1E1E1E1E1E1BE28E1E1E1E1E1E1E1E1E1E1E1E1E1E1E1E1E1E1E1E1E1E1E1E1E1E1E1E1E1E1E1E1E1E1E1E1E10FE1E2E2E2E1E2E2E2E2E2E2E2
310
E1E1E2E2E2E2E2E2E2E2E2E2E1E1E1E1E1E1E1E1E1E1E1E1E1E1E1E1E1E1E1E1E128E1BEE1E1E1E1E1E1E1E1E1E1E1E1E1E1E1E1E1E1E1E1E1E1E1E1E1E1E1E1E1E1E1E1E1E1E1E1E1E1E1E1E1E1E1E1E1E1E1E1E1E1E1E1E1E1E1E1E1E1E1E1E1E1E1E1E1E1E1E1E1E1E1E1E1E1E1E1E1E1E1E1E1E1E1E1E1E1E1E1E1E1E1
310
E1E1E1E1E1E1E1E1E1E1E1E1E1E1E1E1E1E1E1E1E1E1E1E1E1E1E1E1E1E1E1E1E1E1E1E1E1E1E1E1E1E1E1E1E1E1E1E1E1E1E1E1E1E1E1E1E1E1E1E1E1E1E1E1E1E1E1E1E1BEE1E1E1E1E1E1E1BE28E1E1E1E1E1E1E1E1E1E1E1E1E1E1E1E1E1E1E1E1E1E1E1E1E1E1E1E1E1E1E1E1E1E1E1E1E10FE1E1E2E2E2E2E2E2E2E2
310
E2E1E2E1E1E2E2E2E2E2E2E2E2E2E1E1E1E1E1E1E1E1E1E1E1E1E1E1E1E1E1E1E1E1E128E1BEE1E1E1E1E1E1E1E1E1E1E1E1E1E1E1E1E1E1E1E1E1E1E1E1E1E1E1E1E1E1E1E1E1E1E1E1E1E1E1E1E1E1E1E1E1E1E1E1E1E1E1E1E1E1E1E1E1E1E1E1E1E1E1E1E1E1E1E1E1E1E1E1E1E1E1E1E1E1E1E1E1E1E1E1E1E1E1E1E1
310
E1E1E1E1E1E1E1E1E1E1E1E1E1E1E1E1E1E1E1E1E1E1E1E1E1E1E1E1E1E1E1E1E1E1E1E1E1E1E1E1E1E1E1E1E1E1E1E1E1E1E1E1E1E1E1E1E1E1E1E1E1E1E1E1E1E1E1E1E1E1E1BEE1E1E1E1E1E1E1BE28E1E1E1E1E1E1E1E1E1E1E1E1E1E1E1E1E1E1E1E1E1E1E1E1E1E1E1E1E1E1E1E1E1E1E1E1E10F0F0F0F0F0F0F0F0F
310
0F0F0F0F0F0F0F0F0F0F0F0F0F0F0F0F0F0F0F0F0F0F0F0F0F0F0F0F0F0F0F0F0F0F0F0F0F0FE1BEE1E1E1E1E1E1E1E1E1E1E1E1E1E1E1E1E1E1E1E1E1E1E1E1E1E1E1E1E1E1E1E1E1E1E1E1E1E1E1E1E1E1E1E1E1E1E1E1E1E1E1E1E1E1E1E1E1E1E1E1E1E1E1E1E1E1E1E1E1E1E1E1E1E1E1E1E1E1E1E1E1E1E1E1E1E1E1
310
E1E1E1E1E1E1E1E1E1E1E1E1E1E1E1E1E1E1E1E1E1E1E1E1E1E1E1E1E1E1E1E1E1E1E1E1E1E1E1E1E1E1E1E1E1E1E1E1E1E1E1E1E1E1E1E1E1E1E1E1E1E1E1E1E1E1E1E1E1E1E1E1E1BEE1E1E1E1E1E1E1BE28E1E1E1E1E1E1E1E1E1E1E1E1E1E1E1E1E1E1E1E1E1E1E1E1E1E1E1E1E1E1E1E1E1E1E1E1E10FE1E1E1E1E1E1
310
E1E1E1E1E1E1E2E2E2E1E2E2E2E2E2E2E2E2E2E2E1E2E2E2E1E1E1E1E1E1E1E1E1E1E1E1E1E1E128E1BEE1E1E1E1E1E1E1E1E1E1E1E1E1E1E1E1E1E1E1E1E1E1E1E1E1E1E1E1E1E1E1E1E1E1E1E1E1E1E1E1E1E1E1E1E1E1E1E1E1E1E1E1E1E1E1E1E1E1E1E1E1E1E1E1E1E1E1E1E1E1E1E1E1E1E1E1E1E1E1E1E1E1E1E1E1
310
E1E1E1E1E1E1E1E1E1E1E1E1E1E1E1E1E1E1E1E1E1E1E1E1E1E1E1E1E1E1E1E1E1E1E1E1E1E1E1E1E1E1E1E1E1E1E1E1E1E1E1E1E1E1E1E1E1E1E1E1E1E1E1E1E1E1E1E1E1E1E1E1E1E1E1BEE1E1E1E1E1E1E1BE28E1E1E1E1E1E1E1E1E1E1E1E1E1E1E1E1E1E1E1E1E1E1E1E1E1E1E1E1E1E1E1E1E1E1E1E1E10FE1E1E1E1
310
E1E1E1E1E1E1E1E2E2E2E1E1E2E2E2E2E2E2E1E2E2E2E2E2E2E2E1E1E1E1E1E1E1E1E1E1E1E1E1E1E128E1BEE1E1E1E1E1E1E1E1E1E1E1E1E1E1E1E1E1E1E1E1E1E1E1E1E1E1E1E1E1E1E1E1E1E1E1E1E1E1E1E1E1E1E1E1E1E1E1E1E1E1E1E1E1E1E1E1E1E1E1E1E1E1E1E1E1E1E1E1E1E1E1E1E1E1E1E1E1E1E1E1E1E1E1
310
E1E1E1E1E1E1E1E1E1E1E1E1E1E1E1E1E1E1E1E1E1E1E1E1E1E1E1E1E1E1E1E1E1E1E1E1E1E1E1E1E1E1E1E1E1E1E1E1E1E1E1E1E1E1E1E1E1E1E1E1E1E1E1E1E1E1E1E1E1E1E1E1E1E1E1E1E1BEE1E1E1E1E1E1E1BE28E1E1E1E1E1E1E1E1E1E1E1E1E1E1E1E1E1E1E1E1E1E1E1E1E1E1E1E1E1E1E1E1E1E1E1E1E10FE1E1
310
E1E1E1E1E1E1E1E1E1E1E2E2E2E1E2E2E2E2E2E2E2E2E2E2E2E2E2E2E1E1E1E1E1E1E1E1E1E1E1E1E1E1E128E1BEE1E1E1E1E1E1E1E1E1E1E1E1E1E1E1E1E1E1E1E1E1E1E1E1E1E1E1E1E1E1E1E1E1E1E1E1E1E1E1E1E1E1E1E1E1E1E1E1E1E1E1E1E1E1E1E1E1E1E1E1E1E1E1E1E1E1E1E1E1E1E1E1E1E1E1E1E1E1E1E1E1
310
E1E1E1E1E1E1E1E1E1E1E1E1E1E1E1E1E1E1E1E1E1E1E1E1E1E1E1E1E1E1E1E1E1E1E1E1E1E1E1E1E1E1E1E1E1E1E1E1E1E1E1E1E1E1E1E1E1E1E1E1E1E1E1E1E1E1E1E1E1E1E1E1E1E1E1E1E1E1E1BEE1E1E1E1E1E1E1BE28E1E1E1E1E1E1E1E1E1E1E1E1E1E1E1E1E1E1E1E1E1E1E1E1E1E1E1E1E1E1E1E1E1E1E1E1E10F
310
E1E1E1E1E1E1E1E1E1E10F0FE1E1E1E1E1E1E1E1E1E1E1E1E10F0FE1E1E1E1E1E1E1E1E1E1E1E1E1E1E1E1E1E128E1BEE1E1E1E1E1E1E1E1E1E1E1E1E1E1E1E1E1E1E1E1E1E1E1E1E1E1E1E1E1E1E1E1E1E1E1E1E1E1E1E1E1E1E1E1E1E1E1E1E1E1E1E1E1E1E1E1E1E1E1E1E1E1E1E1E1E1E1E1E1E1E1E1E1E1E1E1E1E1E1
310
E1E1E1E1E1E1E1E1E1E1E1E1E1E1E1E1E1E1E1E1E1E1E1E1E1E1E1E1E1E1E1E1E1E1E1E1E1E1E1E1E1E1E1E1E1E1E1E1E1E1E1E1E1E1E1E1E1E1E1E1E1E1E1E1E1E1E1E1E1E1E1E1E1E1E1E1E1E1E1E1E1BEE1E1E1E1E1E1E1BE28E1E1E1E1E1E1E1E1E1E1E1E1E1E1E1E1E1E1E1E1E1E1E1E1E1E1E1E1E1E1E1E1E1E1E1E1
310
E10FE1E10F0F0F0F0F0F0F0F0F0F0F0F0F0F0F0FE10F0F0F0F0F0F0F0F0F0F0F0F0FE1E1E1E1E1E1E1E1E1E1E1E1E128E1BEE1E1E1E1E1E1E1E1E1E1E1E1E1E1E1E1E1E1E1E1E1E1E1E1E1E1E1E1E1E1E1E1E1E1E1E1E1E1E1E1E1E1E1E1E1E1E1E1E1E1E1E1E1E1E1E1E1E1E1E1E1E1E1E1E1E1E1E1E1E1E1E1E1E1E1E1E1
310
E1E1E1E1E1E1E1E1E1E1E1E1E1E1E1E1E1E1E1E1E1E1E1E1E1E1E1E1E1E1E1E1E1E1E1E1E1E1E1E1E1E1E1E1E1E1E1E1E1E1E1E1E1E1E1E1E1E1E1E1E1E1E1E1E1E1E1E1E1E1E1E1E1E1E1E1E1E1E1E1E1E1E1BEE1E1E1E1E1E1E1BE28E1E1E1E1E1E1E1E1E1E1E1E1E1E1E1E1E1E1E1E1E1E1E1E1E1E1E1E1E1E1E1E1E1E1
310
E1E1E10F0F0F0F0F0F0F0F0F0F0F0F0F0F0F0F0F0F0F0F0F0F0F0F0F0F0F0F0F0F0F0F0F0F0F0F0F0F0F0F0F0F0F0F0F0F0FE1BEE1E1E1E1E1E1E1E1E1E1E1E1E1E1E1E1E1E1E1E1E1E1E1E1E1E1E1E1E1E1E1E1E1E1E1E1E1E1E1E1E1E1E1E1E1E1E1E1E1E1E1E1E1E1E1E1E1E1E1E1E1E1E1E1E1E1E1E1E1E1E1E1E1E1E1
310
E1E1E1E1E1E1E1E1E1E1E1E1E1E1E1E1E1E1E1E1E1E1E1E1E1E1E1E1E1E1E1E1E1E1E1E1E1E1E1E1E1E1E1E1E1E1E1E1E1E1E1E1E1E1E1E1E1E1E1E1E1E1E1E1E1E1E1E1E1E1E1E1E1E1E1E1E1E1E1E1E1E1E1E1E1BEE1E1E1E1E1E1E1BE28E1E1E1E1E1E1E1E1E1E1E1E1E1E1E1E1E1E1E1E1E1E1E1E1E1E1E1E1E1E1E1E1
310
E1E1E1E1E10FE1E1E1E1E1E1E1E1E1E1E1E1E1E1E1E1E1E1E1E1E1E1E1E1E1E1E1E1E1E1E1E1E1E1E1E1E1E1E1E10F0F0F0F0F28E1BEE1E1E1E1E1E1E1E1E1E1E1E1E1E1E1E1E1E1E1E1E1E1E1E1E1E1E1E1E1E1E1E1E1E1E1E1E1E1E1E1E1E1E1E1E1E1E1E1E1E1E1E1E1E1E1E1E1E1E1E1E1E1E1E1E1E1E1E1E1E1E1E1E1
310
E1E1E1E1E1E1E1E1E1E1E1E1E1E1E1E1E1E1E1E1E1E1E1E1E1E1E1E1E1E1E1E1E1E1E1E1E1E1E1E1E1E1E1E1E1E1E1E1E1E1E1E1E1E1E1E1E1E1E1E1E1E1E1E1E1E1E1E1E1E1E1E1E1E1E1E1E1E1E1E1E1E1E1E1E1E1E1BEE1E1E1E1E1E1E1BE28E1E1E1E1E1E1E1E1E1E1E1E1E1E1E1E1E1E1E1E1E1E1E1E1E1E1E1E1E1E1
310
E1E1E1E1E1E1E10FE1BEBEBEBEBEBEE1E1E1E1E1E1E1E1E1E1E1E1E1E1E1E1E1E1E1E1E1E1E1E1E1E1E1E1E1E1BE0F0FBEBEBEBEBEBEE1BEE1E1E1E1E1E1E1E1E1E1E1E1E1E1E1E1E1E1E1E1E1E1E1E1E1E1E1E1E1E1E1E1E1E1E1E1E1E1E1E1E1E1E1E1E1E1E1E1E1E1E1E1E1E1E1E1E1E1E1E1E1E1E1E1E1E1E1E1E1E1E1
310
E1E1E1E1E1E1E1E1E1E1E1E1E1E1E1E1E1E1E1E1E1E1E1E1E1E1E1E1E1E1E1E1E1E1E1E1E1E1E1E1E1E1E1E1E1E1E1E1E1E1E1E1E1E1E1E1E1E1E1E1E1E1E1E1E1E1E1E1E1E1E1E1E1E1E1E1E1E1E1E1E1E1E1E1E1E1E1E1E1BEE1E1E1E1E1E1E1BE28E1E1E1E1E1E1E1E1E1E1E1E1E1E1E1E1E1E1E1E1E1E1E1E1E1E1E1E1
310
E1E1E1E1E1E1E1E1E10FE1BEBEBEBEBEBEBEBEE1E1E2E2E1E1E1E1E1E1E1E1E1E1E1E1E1E1E1E1E1E1E1E1E1E1E1E1E10F0FE10F0F0F0F28E1BEE1E1E1E1E1E1E1E1E1E1E1E1E1E1E1E1E1E1E1E1E1E1E1E1E1E1E1E1E1E1E1E1E1E1E1E1E1E1E1E1E1E1E1E1E1E1E1E1E1E1E1E1E1E1E1E1E1E1E1E1E1E1E1E1E1E1E1E1E1
310
E1E1E1E1E1E1E1E1E1E1E1E1E1E1E1E1E1E1E1E1E1E1E1E1E1E1E1E1E1E1E1E1E1E1E1E1E1E1E1E1E1E1E1E1E1E1E1E1E1E1E1E1E1E1E1E1E1E1E1E1E1E1E1E1E1E1E1E1E1E1E1E1E1E1E1E1E1E1E1E1E1E1E1E1E1E1E1E1E1E1E1BEE1E1E1E1E1E1E1BE28E1E1E1E1E1E1E1E1E1E1E1E1E1E1E1E1E1E1E1E1E1E1E1E1E1E1
310
E1E1E1E1E1E1E1E1E1E1E10FE1BEBEBEBEBEBEBEBEBEE1E1E1E1E1E1E1E1E1E1E1E1E1E1E1E1E1E1E1E1E1E1E1E1E1E1E1E1E1E10F0F0F0F0F28E1BEE1E1E1E1E1E1E1E1E1E1E1E1E1E1E1E1E1E1E1E1E1E1E1E1E1E1E1E1E1E1E1E1E1E1E1E1E1E1E1E1E1E1E1E1E1E1E1E1E1E1E1E1E1E1E1E1E1E1E1E1E1E1E1E1E1E1E1
310
E1E1E1E1E1E1E1E1E1E1E1E1E1E1E1E1E1E1E1E1E1E1E1E1E1E1E1E1E1E1E1E1E1E1E1E1E1E1E1E1E1E1E1E1E1E1E1E1E1E1E1E1E1E1E1E1E1E1E1E1E1E1E1E1E1E1E1E1E1E1E1E1E1E1E1E1E1E1E1E1E1E1E1E1E1E1E1E1E1E1E1E1E1BEE1E1E1E1E1E1E1BE28E1E1E1E1E1E1E1E1E1E1E1E1E1E1E1E1E1E1E1E1E1E1E1E1
310
E1E1E1E1E1E1E1E1E1E1E1E1E1E10F0F0F0F0F0F0F0F0F0F0F0F0F0F0F0F0F0F0F0F0F0F0F0F0F0F0F0F0F0F0F0F0F0F0F0F0F0F0F0F0F0F0F0F0F0FE1BEE1E1E1E1E1E1E1E1E1E1E1E1E1E1E1E1E1E1E1E1E1E1E1E1E1E1E1E1E1E1E1E1E1E1E1E1E1E1E1E1E1E1E1E1E1E1E1E1E1E1E1E1E1E1E1E1E1E1E1E1E1E1E1E1E1
310
E1E1E1E1E1E1E1E1E1E1E1E1E1E1E1E1E1E1E1E1E1E1E1E1E1E1E1E1E1E1E1E1E1E1E1E1E1E1E1E1E1E1E1E1E1E1E1E1E1E1E1E1E1E1E1E1E1E1E1E1E1E1E1E1E1E1E1E1E1E1E1E1E1E1E1E1E1E1E1E1E1E1E1E1E1E1E1E1E1E1E1E1E1E1E1BEE1E1E1E1E1E1E1BE28E1E1E1E1E1E1E1E1E1E1E1E1E1E1E1E1E1E1E1E1E1E1
310
E1E1E1E1E1E1E1E1E1E1E1E1E1E1E1E1E1E1E1E1E1E1E1E1E1E1E1E1E1E1E1E1E10FE1E1E1E1E1E1E1E1E1E1E1E1E1E1E1E1E1E1E1E1E1E1E1E1E1E1E128E1BEE1E1E1E1E1E1E1E1E1E1E1E1E1E1E1E1E1E1E1E1E1E1E1E1E1E1E1E1E1E1E1E1E1E1E1E1E1E1E1E1E1E1E1E1E1E1E1E1E1E1E1E1E1E1E1E1E1E1E1E1E1E1E1
310
E1E1E1E1E1E1E1E1E1E1E1E1E1E1E1E1E1E1E1E1E1E1E1E1E1E1E1E1E1E1E1E1E1E1E1E1E1E1E1E1E1E1E1E1E1E1E1E1E1E1E1E1E1E1E1E1E1E1E1E1E1E1E1E1E1E1E1E1E1E1E1E1E1E1E1E1E1E1E1E1E1E1E1E1E1E1E1E1E1E1E1E1E1E1E1E1E1BEE1E1E1E1E1E1E1BE28E1E1E1E1E1E1E1E1E1E1E1E1E1E1E1E1E1E1E1E1
310
E1E1E1E1E1E1E1E1E1E1E1E1E1E1E1E1E1E1E1E1E1E1E1E1E1E1E1E1E1E1E1E1E1E1E10FE1E1E1E1E10FE1E1E1E1E1E1E1E1E1E1E1E1E1E1E1E1E1E1E1E1E128E1BEE1E1E1E1E1E1E1E1E1E1E1E1E1E1E1E1E1E1E1E1E1E1E1E1E1E1E1E1E1E1E1E1E1E1E1E1E1E1E1E1E1E1E1E1E1E1E1E1E1E1E1E1E1E1E1E1E1E1E1E1E1
310
E1E1E1E1E1E1E1E1E1E1E1E1E1E1E1E1E1E1E1E1E1E1E1E1E1E1E1E1E1E1E1E1E1E1E1E1E1E1E1E1E1E1E1E1E1E1E1E1E1E1E1E1E1E1E1E1E1E1E1E1E1E1E1E1E1E1E1E1E1E1E1E1E1E1E1E1E1E1E1E1E1E1E1E1E1E1E1E1E1E1E1E1E1E1E1E1E1E1E1BEE1E1E1E1E1E1E1BE28E1E1E1E1E1E1E1E1E1E1E1E1E1E1E1E1E1E1
310
E1E1E1E1E1E1E1E1E1E1E1E1E1E1E1E1E1E1E1E1E1E1E1E1E1E1E1E1E1E1E1E1E1E1E1E1E10FE1E1E10F0FE1E10FE1E1E1E1E1E1E1E1E1E1E1E1E1E1E1E1E1E1E128E1BEE1E1E1E1E1E1E1E1E1E1E1E1E1E1E1E1E1E1E1E1E1E1E1E1E1E1E1E1E1E1E1E1E1E1E1E1E1E1E1E1E1E1E1E1E1E1E1E1E1E1E1E1E1E1E1E1E1E1E1
310
E1E1E1E1E1E1E1E1E1E1E1E1E1E1E1E1E1E1E1E1E1E1E1E1E1E1E1E1E1E1E1E1E1E1E1E1E1E1E1E1E1E1E1E1E1E1E1E1E1E1E1E1E1E1E1E1E1E1E1E1E1E1E1E1E1E1E1E1E1E1E1E1E1E1E1E1E1E1E1E1E1E1E1E1E1E1E1E1E1E1E1E1E1E1E1E1E1E1E1E1E1BEE1E1E1E1E1E1E1BE28E1E1E1E1E1E1E1E1E1E1E1E1E1E1E1E1
310
E1E1E1E1E1E1E1E1E1E1E1E1E1E1E1E1E1E1E1E1E1E1E1E1E1E1E1E1E1E1E1E1E1E1E1E1E1E10FE1E10F0FE1E10F0FE1E1E1E1E1E1E1E1E1E1E1E1E1E1E1E1E1E1E1E128E1BEE1E1E1E1E1E1E1E1E1E1E1E1E1E1E1E1E1E1E1E1E1E1E1E1E1E1E1E1E1E1E1E1E1E1E1E1E1E1E1E1E1E1E1E1E1E1E1E1E1E1E1E1E1E1E1E1E1
310
E1E1E1E1E1E1E1E1E1E1E1E1E1E1E1E1E1E1E1E1E1E1E1E1E1E1E1E1E1E1E1E1E1E1E1E1E1E1E1E1E1E1E1E1E1E1E1E1E1E1E1E1E1E1E1E1E1E1E1E1E1E1E1E1E1E1E1E1E1E1E1E1E1E1E1E1E1E1E1E1E1E1E1E1E1E1E1E1E1E1E1E1E1E1E1E1E1E1E1E1E1E1E1BEE1E1E1E1E1E1E1BE28E1E1E1E1E1E1E1E1E1E1E1E1E1E1
310
E1E1E1E1E1E1E1E1E1E1E1E1E1E1E1E1E1E1E1E1E1E1E1E1E1E1E1E1E1E1E1E1E1E1E1E1E1E1E1E10F0F0FE1E10F0FE1E1E1E1E1E1E1E1E1E1E1E1E1E1E1E1E1E1E1E1E1E128E1BEE1E1E1E1E1E1E1E1E1E1E1E1E1E1E1E1E1E1E1E1E1E1E1E1E1E1E1E1E1E1E1E1E1E1E1E1E1E1E1E1E1E1E1E1E1E1E1E1E1E1E1E1E1E1E1
310
E1E1E1E1E1E1E1E1E1E1E1E1E1E1E1E1E1E1E1E1E1E1E1E1E1E1E1E1E1E1E1E1E1E1E1E1E1E1E1E1E1E1E1E1E1E1E1E1E1E1E1E1E1E1E1E1E1E1E1E1E1E1E1E1E1E1E1E1E1E1E1E1E1E1E1E1E1E1E1E1E1E1E1E1E1E1E1E1E1E1E1E1E1E1E1E1E1E1E1E1E1E1E1E1E1BEE1E1E1E1E1E1E1BE28E1E1E1E1E1E1E1E1E1E1E1E1
310
E1E1E1E1E1E1E1E1E1E1E1E1E1E1E1E1E1E1E1E1E1E1E1E1E1E1E1E1E1E1E1E1E1E1E10F0F0FE1E1E10F0FE1E10F0FE1E1E1E1E1E1E1E1E1E1E1E1E1E1E1E1E1E1E1E1E1E1E1E128E1BEE1E1E1E1E1E1E1E1E1E1E1E1E1E1E1E1E1E1E1E1E1E1E1E1E1E1E1E1E1E1E1E1E1E1E1E1E1E1E1E1E1E1E1E1E1E1E1E1E1E1E1E1E1
310
E1E1E1E1E1E1E1E1E1E1E1E1E1E1E1E1E1E1E1E1E1E1E1E1E1E1E1E1E1E1E1E1E1E1E1E1E1E1E1E1E1E1E1E1E1E1E1E1E1E1E1E1E1E1E1E1E1E1E1E1E1E1E1E1E1E1E1E1E1E1E1E1E1E1E1E1E1E1E1E1E1E1E1E1E1E1E1E1E1E1E1E1E1E1E1E1E1E1E1E1E1E1E1E1E1E1E1BEE1E1E1E1E1E1E1BE28E1E1E1E1E1E1E1E1E1E1
310
E1E1E1E1E1E1E1E1E1E1E1E1E1E1E1E1E1E1E1E1E1E1E1E1E1E1E1E1E1E1E1E1E1E1E1E1E1E1E1E10F0F0F0F0FE10FE1E1E1E1E1E1E1E1E1E1E1E1E1E1E1E1E1E1E1E1E1E1E1E1E1E128E1BEE1E1E1E1E1E1E1E1E1E1E1E1E1E1E1E1E1E1E1E1E1E1E1E1E1E1E1E1E1E1E1E1E1E1E1E1E1E1E1E1E1E1E1E1E1E1E1E1E1E1E1
310
E1E1E1E1E1E1E1E1E1E1E1E1E1E1E1E1E1E1E1E1E1E1E1E1E1E1E1E1E1E1E1E1E1E1E1E1E1E1E1E1E1E1E1E1E1E1E1E1E1E1E1E1E1E1E1E1E1E1E1E1E1E1E1E1E1E1E1E1E1E1E1E1E1E1E1E1E1E1E1E1E1E1E1E1E1E1E1E1E1E1E1E1E1E1E1E1E1E1E1E1E1E1E1E1E1E1E1E1E1BEE1E1E1E1E1E1E1BE28E1E1E1E1E1E1E1E1
310
E1E1E1E1E1E1E1E1E1E1E1E1E1E1E1E1E1E1E1E1E1E1E1E1E1E1E1E1E1E1E1E1E1E1E1E1E1E1E1E1E10F0FE1E10F0F0F0F0F0F0FE1E1E1E1E1E1E1E1E1E1E1E1E1E1E1E1E1E1E1E1E1E1E128E1BEE1E1E1E1E1E1E1E1E1E1E1E1E1E1E1E1E1E1E1E1E1E1E1E1E1E1E1E1E1E1E1E1E1E1E1E1E1E1E1E1E1E1E1E1E1E1E1E1E1
310
E1E1E1E1E1E1E1E1E1E1E1E1E1E1E1E1E1E1E1E1E1E1E1E1E1E1E1E1E1E1E1E1E1E1E1E1E1E1E1E1E1E1E1E1E1E1E1E1E1E1E1E1E1E1E1E1E1E1E1E1E1E1E1E1E1E1E1E1E1E1E1E1E1E1E1E1E1E1E1E1E1E1E1E1E1E1E1E1E1E1E1E1E1E1E1E1E1E1E1E1E1E1E1E1E1E1E1E1E1E1E1BEE1E1E1E1E1E1E1BE28E1E1E1E1E1E1
310
E1E1E1E1E1E1E1E1E1E1E1E1E1E1E1E1E1E1E1E1E1E1E1E1E1E1E1E1E1E1E1E1E1E1E1E1E1E1E1E1E1E10FE1E1E10F0FE1E1E1E1E1E10F0F0FE1E1E1E1E1E1E1E1E1E1E1E1E1E1E1E1E1E1E1E128E1BEE1E1E1E1E1E1E1E1E1E1E1E1E1E1E1E1E1E1E1E1E1E1E1E1E1E1E1E1E1E1E1E1E1E1E1E1E1E1E1E1E1E1E1E1E1E1E1
310
E1E1E1E1E1E1E1E1E1E1E1E1E1E1E1E1E1E1E1E1E1E1E1E1E1E1E1E1E1E1E1E1E1E1E1E1E1E1E1E1E1E1E1E1E1E1E1E1E1E1E1E1E1E1E1E1E1E1E1E1E1E1E1E1E1E1E1E1E1E1E1E1E1E1E1E1E1E1E1E1E1E1E1E1E1E1E1E1E1E1E1E1E1E1E1E1E1E1E1E1E1E1E1E1E1E1E1E1E1E1E1E1E1BEE1E1E1E1E1E1E1BE28E1E1E1E1
310
E1E1E1E1E1E1E1E1E1E1E1E1E1E1E1E1E1E1E1E1E1E1E1E1E1E1E1E1E1E1E1E1E1E1E1E1E1E1E1E1E1E1E10F0FE10F0FE10FE1E1E1E1E1E1E1E1E1E1E1E1E1E1E1E1E1E1E1E1E1E1E1E1E1E1E1E1E128E1BEE1E1E1E1E1E1E1E1E1E1E1E1E1E1E1E1E1E1E1E1E1E1E1E1E1E1E1E1E1E1E1E1E1E1E1E1E1E1E1E1E1E1E1E1E1
310
E1E1E1E1E1E1E1E1E1E1E1E1E1E1E1E1E1E1E1E1E1E1E1E1E1E1E1E1E1E1E1E1E1E1E1E1E1E1E1E1E1E1E1E1E1E1E1E1E1E1E1E1E1E1E1E1E1E1E1E1E1E1E1E1E1E1E1E1E1E1E1E1E1E1E1E1E1E1E1E1E1E1E1E1E1E1E1E1E1E1E1E1E1E1E1E1E1E1E1E1E1E1E1E1E1E1E1E1E1E1E1E1E1E1E1BEE1E1E1E1E1E1E1BE28E1E1
310
E1E1E1E1E1E1E1E1E1E1E1E1E1E1E1E1E1E1E1E1E1E1E1E1E1E1E1E1E1E1E1E1E1E1E1E1E1E1E1E1E1E1E10F0F0F0F0FE1E1E10FE1E1E1E1E1E1E1E1E1E1E10FE1E1E1E1E1E1E1E1E1E10FE1E1E1E1E1E128E1BEE1E1E1E1E1E1E1E1E1E1E1E1E1E1E1E1E1E1E1E1E1E1E1E1E1E1E1E1E1E1E1E1E1E1E1E1E1E1E1E1E1E1E1
310
E1E1E1E1E1E1E1E1E1E1E1E1E1E1E1E1E1E1E1E1E1E1E1E1E1E1E1E1E1E1E1E1E1E1E1E1E1E1E1E1E1E1E1E1E1E1E1E1E1E1E1E1E1E1E1E1E1E1E1E1E1E1E1E1E1E1E1E1E1E1E1E1E1E1E1E1E1E1E1E1E1E1E1E1E1E1E1E1E1E1E1E1E1E1E1E1E1E1E1E1E1E1E1E1E1E1E1E1E1E1E1E1E1E1E1E1E1BEE1E1E1E1E1E1E1BE28
310
E1E1E1E1E1E1E1E1E1E1E1E1E1E1E1E1E1E1E1E1E1E1E1E1E1E1E1E1E1E1E1E1E1E1E1E1E1E1E1E1E1E1E1E10F0F0F0F0FE1E1E10FE1E1E1E1E1E1E1E1E1E1E1E10FE1E1E1E1E1E1E1E1E10F0FE1E1E1E1E1E128E1BEE1E1E1E1E1E1E1E1E1E1E1E1E1E1E1E1E1E1E1E1E1E1E1E1E1E1E1E1E1E1E1E1E1E1E1E1E1E1E1E1E1
310
E1E1E1E1E1E1E1E1E1E1E1E1E1E1E1E1E1E1E1E1E1E1E1E1E1E1E1E1E1E1E1E1E1E1E1E1E1E1E1E1E1E1E1E1E1E1E1E1E1E1E1E1E1E1E1E1E1E1E1E1E1E1E1E1E1E1E1E1E1E1E1E1E1E1E1E1E1E1E1E1E1E1E1E1E1E1E1E1E1E1E1E1E1E1E1E1E1E1E1E1E1E1E1E1E1E1E1E1E1E1E1E1E1E1E1E1E1E1E1BEE1E1E1E1E1E1E1
310
BE28E1E1E1E1E1E1E1E1E1E1E1E1E1E1E1E1E1E1E1E1E1E1E1E1E1E1E1E1E1E1E1E1E1E1E1E1E1E1E1E1E1E1E1E10F0F0FE1E1E1E1E10FE1E1E1E1E1E10FE1E1E1E10F0FE1E1E1E1E1E10FE10F0FE1E1E1E1E1E1E128E1BEE1E1E1E1E1E1E1E1E1E1E1E1E1E1E1E1E1E1E1E1E1E1E1E1E1E1E1E1E1E1E1E1E1E1E1E1E1E1E1
310
E1E1E1E1E1E1E1E1E1E1E1E1E1E1E1E1E1E1E1E1E1E1E1E1E1E1E1E1E1E1E1E1E1E1E1E1E1E1E1E1E1E1E1E1E1E1E1E1E1E1E1E1E1E1E1E1E1E1E1E1E1E1E1E1E1E1E1E1E1E1E1E1E1E1E1E1E1E1E1E1E1E1E1E1E1E1E1E1E1E1E1E1E1E1E1E1E1E1E1E1E1E1E1E1E1E1E1E1E1E1E1E1E1E1E1E1E1E1E1E1E1BEE1E1E1E1E1
310
E1E1BE28E1E1E1E1E1E1E1E1E1E1E1E1E1E1E1E1E1E1E1E1E1E1E1E1E1E1E1E1E1E1E1E1E1E1E1E1E1E1E1E1E1E1E1E1E1E1E1E1E1E1E1E1E1E1E1E1E1E1E1E10F0FE10FE1E1E1E1E1E1E10FE10F0F0FE1E1E1E1E1E1E128E1BEE1E1E1E1E1E1E1E1E1E1E1E1E1E1E1E1E1E1E1E1E1E1E1E1E1E1E1E1E1E1E1E1E1E1E1E1E1
310
E1E1E1E1E1E1E1E1E1E1E1E1E1E1E1E1E1E1E1E1E1E1E1E1E1E1E1E1E1E1E1E1E1E1E1E1E1E1E1E1E1E1E1E1E1E1E1E1E1E1E1E1E1E1E1E1E1E1E1E1E1E1E1E1E1E1E1E1E1E1E1E1E1E1E1E1E1E1E1E1E1E1E1E1E1E1E1E1E1E1E1E1E1E1E1E1E1E1E1E1E1E1E1E1E1E1E1E1E1E1E1E1E1E1E1E1E1E1E1E1E1E1E1BEE1E1E1
310
E1E1E1E1BE28E1E1E1E1E1E1E1E1E1E1E1E1E1E1E1E1E1E1E1E1E1E1E1E1E1E1E1E1E1E1E1E1E1E1E1E1E1E1E1E1E1E1E1E1E1E1E1E1E1E1E1E1E1E1E1E1E1E1E1E1E1E10FE1E1E1E1E1E1E10F0F0F0FE1E1E1E1E1E1E1E1E128E1BEE1E1E1E1E1E1E1E1E1E1E1E1E1E1E1E1E1E1E1E1E1E1E1E1E1E1E1E1E1E1E1E1E1E1E1
310
E1E1E1E1E1E1E1E1E1E1E1E1E1E1E1E1E1E1E1E1E1E1E1E1E1E1E1E1E1E1E1E1E1E1E1E1E1E1E1E1E1E1E1E1E1E1E1E1E1E1E1E1E1E1E1E1E1E1E1E1E1E1E1E1E1E1E1E1E1E1E1E1E1E1E1E1E1E1E1E1E1E1E1E1E1E1E1E1E1E1E1E1E1E1E1E1E1E1E1E1E1E1E1E1E1E1E1E1E1E1E1E1E1E1E1E1E1E1E1E1E1E1E1E1E1BEE1
310
E1E1E1E1E1E1BE28E1E1E1E1E1E1E1E1E1E1E1E1E1E1E1E1E1E1E1E1E1E1E1E1E1E1E1E1E1E1E1E1E1E1E1E1E1E1E1E1E10FE1E1E1E1E1E1E1E1E1E1E1E1E1E1E1E1E1E1E1E10F0F0FE1E1E1E10F0F0F0F0FE1E1E1E1E1E1E1E1E128E1BEE1E1E1E1E1E1E1E1E1E1E1E1E1E1E1E1E1E1E1E1E1E1E1E1E1E1E1E1E1E1E1E1E1
310
E1E1E1E1E1E1E1E1E1E1E1E1E1E1E1E1E1E1E1E1E1E1E1E1E1E1E1E1E1E1E1E1E1E1E1E1E1E1E1E1E1E1E1E1E1E1E1E1E1E1E1E1E1E1E1E1E1E1E1E1E1E1E1E1E1E1E1E1E1E1E1E1E1E1E1E1E1E1E1E1E1E1E1E1E1E1E1E1E1E1E1E1E1E1E1E1E1E1E1E1E1E1E1E1E1E1E1E1E1E1E1E1E1E1E1E1E1E1E1E1E1E1E1E1E1E1E1
310
BEE1E1E1E1E1E1E1BE28E1E1E1E1E1E1E1E1E1E1E1E1E1E1E1E1E1E1E1E1E1E1E1E1E1E1E1E1E1E1E1E1E1E1E1E1E1E1E1E10F0F0F0FE1E1E1E1E1E1E1E1E1E1E1E1E1E1E1E1E10FE1E1E10FE10F0F0FE10F0FE1E1E1E1E1E1E1E1E1E128E1BEE1E1E1E1E1E1E1E1E1E1E1E1E1E1E1E1E1E1E1E1E1E1E1E1E1E1E1E1E1E1E1
310
E1E1E1E1E1E1E1E1E1E1E1E1E1E1E1E1E1E1E1E1E1E1E1E1E1E1E1E1E1E1E1E1E1E1E1E1E1E1E1E1E1E1E1E1E1E1E1E1E1E1E1E1E1E1E1E1E1E1E1E1E1E1E1E1E1E1E1E1E1E1E1E1E1E1E1E1E1E1E1E1E1E1E1E1E1E1E1E1E1E1E1E1E1E1E1E1E1E1E1E1E1E1E1E1E1E1E1E1E1E1E1E1E1E1E1E1E1E1E1E1E1E1E1E1E1E1E1
310
E1E1BEE1E1E1E1E1E1E1BEBEE1E1E1E1E1E1E1E1E1E1E1E1E1E1E1E1E1E1E1E1E1E1E1E1E1E1E1E1E1E1E1E1E1E1E1E1E1E1E1E10F0FE10F0F0FE1E1E1E1E1E1E1E1E1E1E1E1E1E10FE1E1E10F0F0F0F0F0F0F0FE1E1E1E1E1E1E1E1E1E1E128E1BEE1E1E1E1E1E1E1E1E1E1E1E1E1E1E1E1E1E1E1E1E1E1E1E1E1E1E1E1E1
310
E1E1E1E1E1E1E1E1E1E1E1E1E1E1E1E1E1E1E1E1E1E1E1E1E1E1E1E1E1E1E1E1E1E1E1E1E1E1E1E1E1E1E1E1E1E1E1E1E1E1E1E1E1E1E1E1E1E1E1E1E1E1E1E1E1E1E1E1E1E1E1E1E1E1E1E1E1E1E1E1E1E1E1E1E1E1E1E1E1E1E1E1E1E1E1E1E1E1E1E1E1E1E1E1E1E1E1E1E1E1E1E1E1E1E1E1E1E1E1E1E1E1E1E1E1E1E1
310
E1E1E1E1BEE1E1E1E1E1E1E1BEBEE1E1E1E1E1E1E1E1E1E1E1E1E1E1E1E1E1E1E1E1E1E1E1E1E1E1E1E1E1E1E1E1E1E1E1E1E1E1E1E10F0FE10F0F0F0F0FE1E1E1E1E1E1E1E1E1E1E1E10FE1E10F0F0F0FE10FE1E1E1E1E1E1E1E1E1E1E1E1E1E128E1BEE1E1E1E1E1E1E1E1E1E1E1E1E1E1E1E1E1E1E1E1E1E1E1E1E1E1E1
310
E1E1E1E1E1E1E1E1E1E1E1E1E1E1E1E1E1E1E1E1E1E1E1E1E1E1E1E1E1E1E1E1E1E1E1E1E1E1E1E1E1E1E1E1E1E1E1E1E1E1E1E1E1E1E1E1E1E1E1E1E1E1E1E1E1E1E1E1E1E1E1E1E1E1E1E1E1E1E1E1E1E1E1E1E1E1E1E1E1E1E1E1E1E1E1E1E1E1E1E1E1E1E1E1E1E1E1E1E1E1E1E1E1E1E1E1E1E1E1E1E1E1E1E1E1E1E1
310
E1E1E1E1E1E1BEE1E1E1E1E1E1E1BEBEE1E1E1E1E1E10F0F0F0FE10F0F0F0F0F0F0F0F0F0F0F0F0F0F0FE1E1E1E1E1E1E1E1E1E1E1E1E1E10F0FE10FE10FE10F0F0FE1E1E1E1E1E1E1E1E1E10F0F0F0F0F0F0FE1E10F0FE1E1E1E1E1E1E1E1E1E1E1E128E1BEE1E1E1E1E1E1E1E1E1E1E1E1E1E1E1E1E1E1E1E1E1E1E1E1E1
310
E1E1E1E1E1E1E1E1E1E1E1E1E1E1E1E1E1E1E1E1E1E1E1E1E1E1E1E1E1E1E1E1E1E1E1E1E1E1E1E1E1E1E1E1E1E1E1E1E1E1E1E1E1E1E1E1E1E1E1E1E1E1E1E1E1E1E1E1E1E1E1E1E1E1E1E1E1E1E1E1E1E1E1E1E1E1E1E1E1E1E1E1E1E1E1E1E1E1E1E1E1E1E1E1E1E1E1E1E1E1E1E1E1E1E1E1E1E1E1E1E1E1E1E1E1E1E1
310
E1E1E1E1E1E1E1E1BEE1E1E1E1E1E1E1BE28E1E1E1E1E1E10F0F0F0F0F0F0F0F0FE10F0F0FE10F0F0F0F0F0FE1E1E1E1E1E1E1E1E1E1E1E1E1E10F0FE10F0F0FE10F0F0FE1E1E1E1E1E1E1E1E10F0FE10F0F0F0FE1E1E1E1E10FE1E1E1E1E1E1E1E1E1E1E128E1BEE1E1E1E1E1E1E1E1E1E1E1E1E1E1E1E1E1E1E1E1E1E1E1
310
E1E1E1E1E1E1E1E1E1E1E1E1E1E1E1E1E1E1E1E1E1E1E1E1E1E1E1E1E1E1E1E1E1E1E1E1E1E1E1E1E1E1E1E1E1E1E1E1E1E1E1E1E1E1E1E1E1E1E1E1E1E1E1E1E1E1E1E1E1E1E1E1E1E1E1E1E1E1E1E1E1E1E1E1E1E1E1E1E1E1E1E1E1E1E1E1E1E1E1E1E1E1E1E1E1E1E1E1E1E1E1E1E1E1E1E1E1E1E1E1E1E1E1E1E1E1E1
310
E1E1E1E1E1E1E1E1E1E1BEE1E1E1E1E1E1E1BE28E1E1E1E1E1E1E1E1E1E1E1E1E1E1E1E1E1E1E1E1E1E1E1E1E1E1E1E1E1E1E1E1E1E1E1E1E1E1E1E10F0F0F0F0F0FE10FE1E10F0F0FE1E1E1E10F0FE10FE10FE10F0FE1E1E1E1E1E10F0FE1E1E1E1E1E1E1E1E128E1BEE1E1E1E1E1E1E1E1E1E1E1E1E1E1E1E1E1E1E1E1E1
310
E1E1E1E1E1E1E1E1E1E1E1E1E1E1E1E1E1E1E1E1E1E1E1E1E1E1E1E1E1E1E1E1E1E1E1E1E1E1E1E1E1E1E1E1E1E1E1E1E1E1E1E1E1E1E1E1E1E1E1E1E1E1E1E1E1E1E1E1E1E1E1E1E1E1E1E1E1E1E1E1E1E1E1E1E1E1E1E1E1E1E1E1E1E1E1E1E1E1E1E1E1E1E1E1E1E1E1E1E1E1E1E1E1E1E1E1E1E1E1E1E1E1E1E1E1E1E1
310
E1E1E1E1E1E1E1E1E1E1E1E1BEE1E1E1E1E1E1E1BE28E1E1E1E1E1E1E1E1E1E1E1E1E1E1E1E1E1E1E1E1E1E1E1E1E1E1E1E1E1E1E1E1E1E1E1E1E1E1E1E10F0F0F0FE1E1E10FE1E10F0F0FE1E1E1E1E1E1E1E10F0FE10FE1E1E1E1E1E1E1E1E10FE1E1E1E1E1E1E1E128E1BEE1E1E1E1E1E1E1E1E1E1E1E1E1E1E1E1E1E1E1
310
E1E1E1E1E1E1E1E1E1E1E1E1E1E1E1E1E1E1E1E1E1E1E1E1E1E1E1E1E1E1E1E1E1E1E1E1E1E1E1E1E1E1E1E1E1E1E1E1E1E1E1E1E1E1E1E1E1E1E1E1E1E1E1E1E1E1E1E1E1E1E1E1E1E1E1E1E1E1E1E1E1E1E1E1E1E1E1E1E1E1E1E1E1E1E1E1E1E1E1E1E1E1E1E1E1E1E1E1E1E1E1E1E1E1E1E1E1E1E1E1E1E1E1E1E1E1E1
310
E1E1E1E1E1E1E1E1E1E1E1E1E1E1BEE1E1E1E1E1E1E1BE28E1E1E1E1E1E1E1E1E1E1E1E1E1E1E1E1E1E1E1E1E1E1E1E1E1E1E1E1E1E1E1E1E1E1E1E1E1E1E1E1E10F0F0F0F0FE10FE1E10F0F0FE1E1E1E1E1E1E1E10F0F0F0FE1E1E1E1E1E1E1E1E1E1E1E1E1E1E1E1E1E128E1BEE1E1E1E1E1E1E1E1E1E1E1E1E1E1E1E1E1
310
E1E1E1E1E1E1E1E1E1E1E1E1E1E1E1E1E1E1E1E1E1E1E1E1E1E1E1E1E1E1E1E1E1E1E1E1E1E1E1E1E1E1E1E1E1E1E1E1E1E1E1E1E1E1E1E1E1E1E1E1E1E1E1E1E1E1E1E1E1E1E1E1E1E1E1E1E1E1E1E1E1E1E1E1E1E1E1E1E1E1E1E1E1E1E1E1E1E1E1E1E1E1E1E1E1E1E1E1E1E1E1E1E1E1E1E1E1E1E1E1E1E1E1E1E1E1E1
310
E1E1E1E1E1E1E1E1E1E1E1E1E1E1E1E1BEE1E1E1E1E1E1E1BE28E1E1E1E1E1E1E1E1E1E1E1E1E1E1E1E1E1E1E1E1E1E1E1E1E1E1E1E1E1E1E1E1E1E1E1E1E1E1E1E1E1E10FE10F0F0F0FE1E10F0F0FE1E1E1E1E1E1E1E1E10F0F0FE1E1E1E1E1E1E1E1E1E1E1E1E1E1E1E1E1E128E1BEE1E1E1E1E1E1E1E1E1E1E1E1E1E1E1
310
E1E1E1E1E1E1E1E1E1E1E1E1E1E1E1E1E1E1E1E1E1E1E1E1E1E1E1E1E1E1E1E1E1E1E1E1E1E1E1E1E1E1E1E1E1E1E1E1E1E1E1E1E1E1E1E1E1E1E1E1E1E1E1E1E1E1E1E1E1E1E1E1E1E1E1E1E1E1E1E1E1E1E1E1E1E1E1E1E1E1E1E1E1E1E1E1E1E1E1E1E1E1E1E1E1E1E1E1E1E1E1E1E1E1E1E1E1E1E1E1E1E1E1E1E1E1E1
310
E1E1E1E1E1E1E1E1E1E1E1E1E1E1E1E1E1E1BEE1E1E1E1E1E1E1BE28E1E1E1E1E1E1E1E1E1E1E1E1E1E1E1E1E1E1E1E1E1E1E1E1E1E1E1E1E1E1E1E1E1E1E1E1E1E1E1E1E1E1E10F0FE10F0F0FE10F0F0FE1E1E1E1E1E1E1E1E1E1E1E1E1E1E1E1E1E1E1E1E1E1E1E1E1E1E1E1E1E128E1BEE1E1E1E1E1E1E1E1E1E1E1E1E1
310
E1E1E1E1E1E1E1E1E1E1E1E1E1E1E1E1E1E1E1E1E1E1E1E1E1E1E1E1E1E1E1E1E1E1E1E1E1E1E1E1E1E1E1E1E1E1E1E1E1E1E1E1E1E1E1E1E1E1E1E1E1E1E1E1E1E1E1E1E1E1E1E1E1E1E1E1E1E1E1E1E1E1E1E1E1E1E1E1E1E1E1E1E1E1E1E1E1E1E1E1E1E1E1E1E1E1E1E1E1E1E1E1E1E1E1E1E1E1E1E1E1E1E1E1E1E1E1
310
E1E1E1E1E1E1E1E1E1E1E1E1E1E1E1E1E1E1E1E1BEE1E1E1E1E1E1E1BE28E1E1E1E1E1E1E1E1E1E1E1E1E1E1E1E1E1E1E1E1E1E1E1E1E1E1E1E1E1E1E1E1E1E1E1E1E1E1E1E1E1E1E1E1E10F0FE10F0F0F0F0FE1E1E1E1E1E1E1E1E1E1E1E1E1E1E1E1E1E1E1E1E1E1E1E1E1E1E1E1E1E128E1BEE1E1E1E1E1E1E1E1E1E1E1
310
E1E1E1E1E1E1E1E1E1E1E1E1E1E1E1E1E1E1E1E1E1E1E1E1E1E1E1E1E1E1E1E1E1E1E1E1E1E1E1E1E1E1E1E1E1E1E1E1E1E1E1E1E1E1E1E1E1E1E1E1E1E1E1E1E1E1E1E1E1E1E1E1E1E1E1E1E1E1E1E1E1E1E1E1E1E1E1E1E1E1E1E1E1E1E1E1E1E1E1E1E1E1E1E1E1E1E1E1E1E1E1E1E1E1E1E1E1E1E1E1E1E1E1E1E1E1E1
310
E1E1E1E1E1E1E1E1E1E1E1E1E1E1E1E1E1E1E1E1E1E1BEE1E1E1E1E1E1E1BE28E1E1E1E1E1E1E1E1E1E1E1E1E1E1E1E1E1E1E1E1E1E1E1E1E1E1E1E1E1E1E1E1E1E1E1E1E1E1E1E1E1E1E1E1E1E1E10F0FE10F0F0FE1E1E1E1E1E1E1E1E1E1E1E1E1E1E1E1E1E1E1E1E1E1E1E1E1E1E1E1E1E128E1BEE1E1E1E1E1E1E1E1E1
310
E1E1E1E1E1E1E1E1E1E1E1E1E1E1E1E1E1E1E1E1E1E1E1E1E1E1E1E1E1E1E1E1E1E1E1E1E1E1E1E1E1E1E1E1E1E1E1E1E1E1E1E1E1E1E1E1E1E1E1E1E1E1E1E1E1E1E1E1E1E1E1E1E1E1E1E1E1E1E1E1E1E1E1E1E1E1E1E1E1E1E1E1E1E1E1E1E1E1E1E1E1E1E1E1E1E1E1E1E1E1E1E1E1E1E1E1E1E1E1E1E1E1E1E1E1E1E1
310
E1E1E1E1E1E1E1E1E1E1E1E1E1E1E1E1E1E1E1E1E1E1E1E1BEE1E1E1E1E1E1E1BE28E1E1E1E1E1E1E1E1E1E1E1E1E1E1E1E1E1E1E1E1E1E1E1E1E1E1E1E1E1E1E1E1E1E1E1E1E1E1E1E1E1E1E1E1E1E1E1E1E1E1E1E1E1E1E1E1E1E1E1E1E1E1E1E1E1E1E1E1E1E1E1E1E1E1E1E1E1E1E1E1E1E1E128E1BEE1E1E1E1E1E1E1
310
E1E1E1E1E1E1E1E1E1E1E1E1E1E1E1E1E1E1E1E1E1E1E1E1E1E1E1E1E1E1E1E1E1E1E1E1E1E1E1E1E1E1E1E1E1E1E1E1E1E1E1E1E1E1E1E1E1E1E1E1E1E1E1E1E1E1E1E1E1E1E1E1E1E1E1E1E1E1E1E1E1E1E1E1E1E1E1E1E1E1E1E1E1E1E1E1E1E1E1E1E1E1E1E1E1E1E1E1E1E1E1E1E1E1E1E1E1E1E1E1E1E1E1E1E1E1E1
310
E1E1E1E1E1E1E1E1E1E1E1E1E1E1E1E1E1E1E1E1E1E1E1E1E1E1BEE1E1E1E1E1E1E1BE28E1E1E1E1E1E1E1E1E1E1E1E1E1E1E1E1E1E1E1E1E1E1E1E1E1E1E1E1E1E1E1E1E1E1E1E1E1E1E1E1E1E1E1E1E1E1E1E1E1E1E1E1E1E1E1E1E1E1E1E1E1E1E1E1E1E1E1E1E1E1E1E1E1E1E1E1E1E1E1E1E1E1E128E1BEE1E1E1E1E1
310
E1E1E1E1E1E1E1E1E1E1E1E1E1E1E1E1E1E1E1E1E1E1E1E1E1E1E1E1E1E1E1E1E1E1E1E1E1E1E1E1E1E1E1E1E1E1E1E1E1E1E1E1E1E1E1E1E1E1E1E1E1E1E1E1E1E1E1E1E1E1E1E1E1E1E1E1E1E1E1E1E1E1E1E1E1E1E1E1E1E1E1E1E1E1E1E1E1E1E1E1E1E1E1E1E1E1E1E1E1E1E1E1E1E1E1E1E1E1E1E1E1E1E1E1E1E1E1
310
E1E1E1E1E1E1E1E1E1E1E1E1E1E1E1E1E1E1E1E1E1E1E1E1E1E1E1E1BEE1E1E1E1E1E1E1BEBEE1E1E1E1E1E1E1E1E1E1E1E1E1E1E1E1E1E1E1E1E1E1E1E1E1E1E1E1E1E1E1E1E1E1E1E1E1E1E1E1E1E1E1E1E1E1E1E1E1E1E1E1E1E1E1E1E1E1E1E1E1E1E1E1E1E1E1E1E1E1E1E1E1E1E1E1E1E1E1E1E1E1E128E1BEE1E1E1
310
E1E1E1E1E1E1E1E1E1E1E1E1E1E1E1E1E1E1E1E1E1E1E1E1E1E1E1E1E1E1E1E1E1E1E1E1E1E1E1E1E1E1E1E1E1E1E1E1E1E1E1E1E1E1E1E1E1E1E1E1E1E1E1E1E1E1E1E1E1E1E1E1E1E1E1E1E1E1E1E1E1E1E1E1E1E1E1E1E1E1E1E1E1E1E1E1E1E1E1E1E1E1E1E1E1E1E1E1E1E1E1E1E1E1E1E1E1E1E1E1E1E1E1E1E1E1E1
310
E1E1E1E1E1E1E1E1E1E1E1E1E1E1E1E1E1E1E1E1E1E1E1E1E1E1E1E1E1E1BEE1E1E1E1E1E1E1BEBEE1E1E1E1E1E1E1E1E1E1E1E1E1E1E1E1E1E1E1E1E1E1E1E1E1E1E1E1E1E1E1E1E1E1E1E1E1E1E1E1E1E1E1E1E1E1E1E1E1E1E1E1E1E1E1E1E1E1E1E1E1E1E1E1E1E1E1E1E1E1E1E1E1E1E1E1E1E1E1E1E1E1E128E1BEE1
310
E1E1E1E1E1E1E1E1E1E1E1E1E1E1E1E1E1E1E1E1E1E1E1E1E1E1E1E1E1E1E1E1E1E1E1E1E1E1E1E1E1E1E1E1E1E1E1E1E1E1E1E1E1E1E1E1E1E1E1E1E1E1E1E1E1E1E1E1E1E1E1E1E1E1E1E1E1E1E1E1E1E1E1E1E1E1E1E1E1E1E1E1E1E1E1E1E1E1E1E1E1E1E1E1E1E1E1E1E1E1E1E1E1E1E1E1E1E1E1E1E1E1E1E1E1E1E1
310
E1E1E1E1E1E1E1E1E1E1E1E1E1E1E1E1E1E1E1E1E1E1E1E1E1E1E1E1E1E1E1E1BEE1E1E1E1E1E1E1BE28E1E1E1E1E1E1E1E1E1E1E1E1E1E1E1E1E1E1E1E1E1E1E1E1E1E1E1E1E1E1E1E1E1E1E1E1E1E1E1E1E1E1E1E1E1E1E1E1E1E1E1E1E1E1E1E1E1E1E1E1E1E1E1E1E1E1E1E1E1E1E1E1E1E1E1E1E1E1E1E1E1E1E128E1
310
BEE1E1E1E1E1E1E1E1E1E1E1E1E1E1E1E1E1E1E1E1E1E1E1E1E1E1E1E1E1E1E1E1E1E1E1E1E1E1E1E1E1E1E1E1E1E1E1E1E1E1E1E1E1E1E1E1E1E1E1E1E1E1E1E1E1E1E1E1E1E1E1E1E1E1E1E1E1E1E1E1E1E1E1E1E1E1E1E1E1E1E1E1E1E1E1E1E1E1E1E1E1E1E1E1E1E1E1E1E1E1E1E1E1E1E1E1E1E1E1E1E1E1E1E1E1E1
310
E1E1E1E1E1E1E1E1E1E1E1E1E1E1E1E1E1E1E1E1E1E1E1E1E1E1E1E1E1E1E1E1E1E1BEE1E1E1E1E1E1E1BEBEE1E1E1E1E1E1E1E1E1E1E1E1E1E1E1E1E1E1E1E1E1E1E1E1E1E1E1E1E1E1E1E1E1E1E1E1E1E1E1E1E1E1E1E1E1E1E1E1E1E1E1E1E1E1E1E1E1E1E1E1E1E1E1E1E1E1E1E1E1E1E1E1E1E1E1E1E1E1E1E1E1E1E1
310
28E1BEE1E1E1E1E1E1E1E1E1E1E1E1E1E1E1E1E1E1E1E1E1E1E1E1E1E1E1E1E1E1E1E1E1E1E1E1E1E1E1E1E1E1E1E1E1E1E1E1E1E1E1E1E1E1E1E1E1E1E1E1E1E1E1E1E1E1E1E1E1E1E1E1E1E1E1E1E1E1E1E1E1E1E1E1E1E1E1E1E1E1E1E1E1E1E1E1E1E1E1E1E1E1E1E1E1E1E1E1E1E1E1E1E1E1E1E1E1E1E1E1E1E1E1E1
310
E1E1E1E1E1E1E1E1E1E1E1E1E1E1E1E1E1E1E1E1E1E1E1E1E1E1E1E1E1E1E1E1E1E1E1E1BEE1E1E1E1E1E1E1BEBEE1E1E1E1E1E1E1E1E1E1E1E1E1E1E1E1E1E1E1E1E1E1E1E1E1E1E1E1E1E1E1E1E1E1E1E1E1E1E1E1E1E1E1E1E1E1E1E1E1E1E1E1E1E1E1E1E1E1E1E1E1E1E1E1E1E1E1E1E1E1E1E1E1E1E1E1E1E1E1E1E1
310
E1E128E1BEE1E1E1E1E1E1E1E1E1E1E1E1E1E1E1E1E1E1E1E1E1E1E1E1E1E1E1E1E1E1E1E1E1E1E1E1E1E1E1E1E1E1E1E1E1E1E1E1E1E1E1E1E1E1E1E1E1E1E1E1E1E1E1E1E1E1E1E1E1E1E1E1E1E1E1E1E1E1E1E1E1E1E1E1E1E1E1E1E1E1E1E1E1E1E1E1E1E1E1E1E1E1E1E1E1E1E1E1E1E1E1E1E1E1E1E1E1E1E1E1E1E1
310
E1E1E1E1E1E1E1E1E1E1E1E1E1E1E1E1E1E1E1E1E1E1E1E1E1E1E1E1E1E1E1E1E1E1E1E1E1E1BEE1E1E1E1E1E1E1BE28E1E1E1E1E1E1E1E1E1E1E1E1E1E1E1E1E1E1E1E1E1E1E1E1E1E1E1E1E1E1E1E1E1E1E1E1E1E1E1E1E1E1E1E1E1E1E1E1E1E1E1E1E1E10FE1E1E1E1E1E1E1E1E1E1E10FE1E1E1E1E1E1E1E1E1E1E1E1
310
E1E1E1E128E1BEE1E1E1E1E1E1E1E1E1E1E1E1E1E1E1E1E1E1E1E1E1E1E1E1E1E1E1E1E1E1E1E1E1E1E1E1E1E1E1E1E1E1E1E1E1E1E1E1E1E1E1E1E1E1E1E1E1E1E1E1E1E1E1E1E1E1E1E1E1E1E1E1E1E1E1E1E1E1E1E1E1E1E1E1E1E1E1E1E1E1E1E1E1E1E1E1E1E1E1E1E1E1E1E1E1E1E1E1E1E1E1E1E1E1E1E1E1E1E1E1
310
E1E1E1E1E1E1E1E1E1E1E1E1E1E1E1E1E1E1E1E1E1E1E1E1E1E1E1E1E1E1E1E1E1E1E1E1E1E1E1E1BEE1E1E1E1E1E1E1BE28E1E1E1E1E1E1E1E1E1E1E1E1E1E1E1E1E1E1E1E1E1E1E1E1E1E1E1E1E1E1E1E1E1E1E1E1E1E1E1E1E1E1E1E1E1E1E1E1E1E1E1E1E1E10FE1E1E1E1E1E1E1E1E1E10FE1E1E1E1E1E1E1E1E1E1E1
310
E1E1E1E1E1E128E1BEE1E1E1E1E1E1E1E1E1E1E1E1E1E1E1E1E1E1E1E1E1E1E1E1E1E1E1E1E1E1E1E1E1E1E1E1E1E1E1E1E1E1E1E1E1E1E1E1E1E1E1E1E1E1E1E1E1E1E1E1E1E1E1E1E1E1E1E1E1E1E1E1E1E1E1E1E1E1E1E1E1E1E1E1E1E1E1E1E1E1E1E1E1E1E1E1E1E1E1E1E1E1E1E1E1E1E1E1E1E1E1E1E1E1E1E1E1E1
310
E1E1E1E1E1E1E1E1E1E1E1E1E1E1E1E1E1E1E1E1E1E1E1E1E1E1E1E1E1E1E1E1E1E1E1E1E1E1E1E1E1E1BEE1E1E1E1E1E1E1BE28E1E1E1E1E1E1E1E1E1E1E1E1E1E1E1E1E1E1E1E1E1E1E1E1E1E1E1E1E1E1E1E1E1E1E1E1E1E1E1E1E1E1E1E1E1E1E1E1E1E1E1E1E1E10FE1E1E1E1E1E10FE1E10FE1E1E1E1E1E1E1E1E1E1
310
E1E1E1E1E1E1E1E128E1BEE1E1E1E1E1E1E1E1E1E1E1E1E1E1E1E1E1E1E1E1E1E1E1E1E1E1E1E1E1E1E1E1E1E1E1E1E1E1E1E1E1E1E1E1E1E1E1E1E1E1E1E1E1E1E1E1E1E1E1E1E1E1E1E1E1E1E1E1E1E1E1E1E1E1E1E1E1E1E1E1E1E1E1E1E1E1E1E1E1E1E1E1E1E1E1E1E1E1E1E1E1E1E1E1E1E1E1E1E1E1E1E1E1E1E1E1
310
E1E1E1E1E1E1E1E1E1E1E1E1E1E1E1E1E1E1E1E1E1E1E1E1E1E1E1E1E1E1E1E1E1E1E1E1E1E1E1E1E1E1E1E1BEE1E1E1E1E1E1E1BE28E1E1E1E1E1E1E1E1E1E1E1E1E1E1E1E1E1E1E1E1E1E1E1E1E1E1E1E1E1E1E1E1E1E1E1E1E1E1E1E1E1E1E1E1E1E1E1E1E1E1E1E1E10FE1E1E1E1E1E10F0FE10F0FE1E1E1E1E1E1E1E1
310
E1E1E1E1E1E1E1E1E1E128E1BEE1E1E1E1E1E1E1E1E1E1E1E1E1E1E1E1E1E1E1E1E1E1E1E1E1E1E1E1E1E1E1E1E1E1E1E1E1E1E1E1E1E1E1E1E1E1E1E1E1E1E1E1E1E1E1E1E1E1E1E1E1E1E1E1E1E1E1E1E1E1E1E1E1E1E1E1E1E1E1E1E1E1E1E1E1E1E1E1E1E1E1E1E1E1E1E1E1E1E1E1E1E1E1E1E1E1E1E1E1E1E1E1E1E1
310
E1E1E1E1E1E1E1E1E1E1E1E1E1E1E1E1E1E1E1E1E1E1E1E1E1E1E1E1E1E1E1E1E1E1E1E1E1E1E1E1E1E1E1E1E1E1BEE1E1E1E1E1E1E1BE28E1E1E1E1E1E1E1E1E1E1E1E1E1E1E1E1E1E1E1E1E1E1E1E1E1E1E1E1E1E1E1E1E1E1E1E1E1E1E1E1E1E1E1E1E1E1E1E1E1E1E1E10FE1E1E1E1E1E10F0FE10F0FE1E1E1E1E1E1E1
310
E1E1E1E1E1E1E1E1E1E1E1E128E1BEE1E1E1E1E1E1E1E1E1E1E1E1E1E1E1E1E1E1E1E1E1E1E1E1E1E1E1E1E1E1E1E1E1E1E1E1E1E1E1E1E1E1E1E1E1E1E1E1E1E1E1E1E1E1E1E1E1E1E1E1E1E1E1E1E1E1E1E1E1E1E1E1E1E1E1E1E1E1E1E1E1E1E1E1E1E1E1E1E1E1E1E1E1E1E1E1E1E1E1E1E1E1E1E1E1E1E1E1E1E1E1E1
310
E1E1E1E1E1E1E1E1E1E1E1E1E1E1E1E1E1E1E1E1E1E1E1E1E1E1E1E1E1E1E1E1E1E1E1E1E1E1E1E1E1E1E1E1E1E1E1E1BEE1E1E1E1E1E1E1BE28E1E1E1E1E1E1E1E1E1E1E1E1E1E1E1E1E1E1E1E1E1E1E1E1E1E1E1E1E1E1E1E1E1E1E1E1E1E1E1E1E1E1E1E1E1E1E1E1E1E1E10FE1E1E1E1E1E10F0FE10F0FE1E1E1E1E1E1
310
E1E1E1E1E1E1E1E1E1E1E1E1E1E128E1BEE1E1E1E1E1E1E1E1E1E1E1E1E1E1E1E1E1E1E1E1E1E1E1E1E1E1E1E1E1E1E1E1E1E1E1E1E1E1E1E1E1E1E1E1E1E1E1E1E1E1E1E1E1E1E1E1E1E1E1E1E1E1E1E1E1E1E1E1E1E1E1E1E1E1E1E1E1E1E1E1E1E1E1E1E1E1E1E1E1E1E1E1E1E1E1E1E1E1E1E1E1E1E1E1E1E1E1E1E1E1
310
E1E1E1E1E1E1E1E1E1E1E1E1E1E1E1E1E1E1E1E1E1E1E1E1E1E1E1E1E1E1E1E1E1E1E1E1E1E1E1E1E1E1E1E1E1E1E1E1E1E1BEE1E1E1E1E1E1E1BE28E1E1E1E1E1E1E1E1E1E1E1E1E1E1E1E1E1E1E1E1E1E1E1E1E1E1E1E1E1E1E1E1E1E1E1E1E1E1E1E1E1E1E1E1E1E1E1E1E1E10F0FE1E1E1E1E10F0FE1E10FE1E1E1E1E1
310
E1E1E1E1E1E1E1E1E1E1E1E1E1E1E1E128E1BEE1E1E1E1E1E1E1E1E1E1E1E1E1E1E1E1E1E1E1E1E1E1E1E1E1E1E1E1E1E1E1E1E1E1E1E1E1E1E1E1E1E1E1E1E1E1E1E1E1E1E1E1E1E1E1E1E1E1E1E1E1E1E1E1E1E1E1E1E1E1E1E1E1E1E1E1E1E1E1E1E1E1E1E1E1E1E1E1E1E1E1E1E1E1E1E1E1E1E1E1E1E1E1E1E1E1E1E1
310
E1E1E1E1E1E1E1E1E1E1E1E1E1E1E1E1E1E1E1E1E1E1E1E1E1E1E1E1E1E1E1E1E1E1E1E1E1E1E1E1E1E1E1E1E1E1E1E1E1E1E1E1BEE1E1E1E1E1E1E1BE28E1E1E1E1E1E1E1E1E1E1E1E1E1E1E1E1E1E1E1E1E1E1E1E1E1E1E1E1E1E1E1E1E1E1E1E1E1E1E1E1E1E1E1E1E1E1E1E1E1E10FE1E10F0F0F0F0F0F0F0FE1E1E1E1
310
E1E1E1E1E1E1E1E1E1E1E1E1E1E1E1E1E1E128E1BEE1E1E1E1E1E1E1E1E1E1E1E1E1E1E1E1E1E1E1E1E1E1E1E1E1E1E1E1E1E1E1E1E1E1E1E1E1E1E1E1E1E1E1E1E1E1E1E1E1E1E1E1E1E1E1E1E1E1E1E1E1E1E1E1E1E1E1E1E1E1E1E1E1E1E1E1E1E1E1E1E1E1E1E1E1E1E1E1E1E1E1E1E1E1E1E1E1E1E1E1E1E1E1E1E1E1
310
E1E1E1E1E1E1E1E1E1E1E1E1E1E1E1E1E1E1E1E1E1E1E1E1E1E1E1E1E1E1E1E1E1E1E1E1E1E1E1E1E1E1E1E1E1E1E1E1E1E1E1E1E1E1BEE1E1E1E1E1E1E1BE28E1E1E1E1E1E1E1E1E1E1E1E1E1E1E1E1E1E1E1E1E1E1E1E1E1E1E1E1E1E1E1E1E1E1E1E1E1E1E1E1E1E1E1E1E1E1E1E1E1E10FE1E10FE10F0FE1E1E1E1E1E1
310
E1E1E1E1E1E1E1E1E1E1E1E1E1E1E1E1E1E1E1E128E1BEE1E1E1E1E1E1E1E1E1E1E1E1E1E1E1E1E1E1E1E1E1E1E1E1E1E1E1E1E1E1E1E1E1E1E1E1E1E1E1E1E1E1E1E1E1E1E1E1E1E1E1E1E1E1E1E1E1E1E1E1E1E1E1E1E1E1E1E1E1E1E1E1E1E1E1E1E1E1E1E1E1E1E1E1E1E1E1E1E1E1E1E1E1E1E1E1E1E1E1E1E1E1E1E1
310
E1E1E1E1E1E1E1E1E1E1E1E1E1E1E1E1E1E1E1E1E1E1E1E1E1E1E1E1E1E1E1E1E1E1E1E1E1E1E1E1E1E1E1E1E1E1E1E1E1E1E1E1E1E1E1E1BEE1E1E1E1E1E1E1BE28E1E1E1E1E1E1E1E1E1E1E1E1E1E1E1E1E1E1E1E1E1E1E1E1E1E1E1E1E1E1E1E1E1E1E1E1E1E1E1E1E1E1E1E1E1E1E1E1E1E10FE10F0F0F0FE1E1E1E1E1
310
E1E1E1E1E1E1E1E1E1E1E1E1E1E1E1E1E1E1E1E1E1E128E1BEE1E1E1E1E1E1E1E1E1E1E1E1E1E1E1E1E1E1E1E1E1E1E1E1E1E1E1E1E1E1E1E1E1E1E1E1E1E1E1E1E1E1E1E1E1E1E1E1E1E1E1E1E1E1E1E1E1E1E1E1E1E1E1E1E1E1E1E1E1E1E1E1E1E1E1E1E1E1E1E1E1E1E1E1E1E1E1E1E1E1E1E1E1E1E1E1E1E1E1E1E1E1
310
E1E1E1E1E1E1E1E1E1E1E1E1E1E1E1E1E1E1E1E1E1E1E1E1E1E1E1E1E1E1E1E1E1E1E1E1E1E1E1E1E1E1E1E1E1E1E1E1E1E1E1E1E1E1E1E1E1E1BEE1E1E1E1E1E1E1BE28E1E1E1E1E1E1E1E1E1E1E1E1E1E1E1E1E1E1E1E1E1E1E1E1E1E1E1E1E1E1E1E1E1E1E1E1E1E1E1E1E1E1E1E1E1E1E1E1E1E10F0FE10F0F0FE1E1E1
310
E1E1E1E1E1E1E1E1E1E1E1E1E1E1E1E1E1E1E1E1E1E1E1E128E1BEE1E1E1E1E1E1E1E1E1E1E1E1E1E1E1E1E1E1E1E1E1E1E1E1E1E1E1E1E1E1E1E1E1E1E1E1E1E1E1E1E1E1E1E1E1E1E1E1E1E1E1E1E1E1E1E1E1E1E1E1E1E1E1E1E1E1E1E1E1E1E1E1E1E1E1E1E1E1E1E1E1E1E1E1E1E1E1E1E1E1E1E1E1E1E1E1E1E1E1E1
310
E1E1E1E1E1E1E1E1E1E1E1E1E1E1E1E1E1E1E1E1E1E1E1E1E1E1E1E1E1E1E1E1E1E1E1E1E1E1E1E1E1E1E1E1E1E1E1E1E1E1E1E1E1E1E1E1E1E1E1E1BEE1E1E1E1E1E1E1BE28E1E1E1E1E1E1E1E1E1E1E1E1E1E1E1E1E1E1E1E1E1E1E1E1E1E1E1E1E1E1E1E1E1E1E1E1E1E1E1E1E10FE1E1E1E1E1E1E1E10F0FE1E10FE1E1
310
E1E1E1E1E1E1E1E1E1E1E1E1E1E1E1E1E1E1E1E1E1E1E1E1E1E128E1BEE1E1E1E1E1E1E1E1E1E1E1E1E1E1E1E1E1E1E1E1E1E1E1E1E1E1E1E1E1E1E1E1E1E1E1E1E1E1E1E1E1E1E1E1E1E1E1E1E1E1E1E1E1E1E1E1E1E1E1E1E1E1E1E1E1E1E1E1E1E1E1E1E1E1E1E1E1E1E1E1E1E1E1E1E1E1E1E1E1E1E1E1E1E1E1E1E1E1
310
E1E1E1E1E1E1E1E1E1E1E1E1E1E1E1E1E1E1E1E1E1E1E1E1E1E1E1E1E1E1E1E1E1E1E1E1E1E1E1E1E1E1E1E1E1E1E1E1E1E1E1E1E1E1E1E1E1E1E1E1E1E1BEE1E1E1E1E1E1E1BE28E1E1E1E1E1E1E1E1E1E1E1E1E1E1E1E1E1E1E1E1E1E1E1E1E1E1E1E1E1E1E1E1E1E1E1E1E1E1E1E10F0F0F0FE1E1E1E1E1E10F0FE1E10F
310
E1E1E1E1E1E1E1E1E1E1E1E1E1E1E1E1E1E1E1E1E1E1E1E1E1E1E1E128E1BEE1E1E1E1E1E1E1E1E1E1E1E1E1E1E1E1E1E1E1E1E1E1E1E1E1E1E1E1E1E1E1E1E1E1E1E1E1E1E1E1E1E1E1E1E1E1E1E1E1E1E1E1E1E1E1E1E1E1E1E1E1E1E1E1E1E1E1E1E1E1E1E1E1E1E1E1E1E1E1E1E1E1E1E1E1E1E1E1E1E1E1E1E1E1E1E1
310
E1E1E1E1E1E1E1E1E1E1E1E1E1E1E1E1E1E1E1E1E1E1E1E1E1E1E1E1E1E1E1E1E1E1E1E1E1E1E1E1E1E1E1E1E1E1E1E1E1E1E1E1E1E1E1E1E1E1E1E1E1E1E1E1BEE1E1E1E1E1E1E1BE28E1E1E1E1E1E1E1E1E1E1E1E1E1E1E1E1E1E1E1E1E1E1E1E1E1E1E1E1E1E1E1E1E1E1E1E1E1E1E1E10F0F0FE10F0FE1E1E1E10F0F0F
310
0F0FE1E1E1E1E1E1E1E1E1E1E1E1E1E1E1E1E1E1E1E1E1E1E1E1E1E1E1E128E1BEE1E1E1E1E1E1E1E1E1E1E1E1E1E1E1E1E1E1E1E1E1E1E1E1E1E1E1E1E1E1E1E1E1E1E1E1E1E1E1E1E1E1E1E1E1E1E1E1E1E1E1E1E1E1E1E1E1E1E1E1E1E1E1E1E1E1E1E1E1E1E1E1E1E1E1E1E1E1E1E1E1E1E1E1E1E1E1E1E1E1E1E1E1E1
310
E1E1E1E1E1E1E1E1E1E1E1E1E1E1E1E1E1E1E1E1E1E1E1E1E1E1E1E1E1E1E1E1E1E1E1E1E1E1E1E1E1E1E1E1E1E1E1E1E1E1E1E1E1E1E1E1E1E1E1E1E1E1E1E1E1E1BEE1E1E1E1E1E1E1BE28E1E1E1E1E1E1E1E1E1E1E1E1E1E1E1E1E1E1E1E1E1E1E1E1E1E1E1E1E1E1E1E1E1E1E1E1E1E1E1E10F0F0F0F0F0F0F0FE1E1E1
310
0F0F0FE1E1E1E1E1E1E1E1E1E1E1E1E1E1E1E1E1E1E1E1E1E1E1E1E1E1E1E1E128E1BEE1E1E1E1E1E1E1E1E1E1E1E1E1E1E1E1E1E1E1E1E1E1E1E1E1E1E1E1E1E1E1E1E1E1E1E1E1E1E1E1E1E1E1E1E1E1E1E1E1E1E1E1E1E1E1E1E1E1E1E1E1E1E1E1E1E1E1E1E1E1E1E1E1E1E1E1E1E1E1E1E1E1E1E1E1E1E1E1E1E1E1E1
310
E1E1E1E1E1E1E1E1E1E1E1E1E1E1E1E1E1E1E1E1E1E1E1E1E1E1E1E1E1E1E1E1E1E1E1E1E1E1E1E1E1E1E1E1E1E1E1E1E1E1E1E1E1E1E1E1E1E1E1E1E1E1E1E1E1E1E1E1BEE1E1E1E1E1E1E1BE28E1E1E1E1E10F0F0F0F0FE10F0F0F0F0F0F0F0F0F0F0F0F0F0F0FE1E1E1E1E1E1E1E1E1E1E1E1E1E10F0F0F0F0FE10F0F0F
310
0FE1E1E1E1E1E1E1E1E1E1E1E1E1E1E1E1E1E1E1E1E1E1E1E1E1E1E1E1E1E1E1E1E128E1BEE1E1E1E1E1E1E1E1E1E1E1E1E1E1E1E1E1E1E1E1E1E1E1E1E1E1E1E1E1E1E1E1E1E1E1E1E1E1E1E1E1E1E1E1E1E1E1E1E1E1E1E1E1E1E1E1E1E1E1E1E1E1E1E1E1E1E1E1E1E1E1E1E1E1E1E1E1E1E1E1E1E1E1E1E1E1E1E1E1E1
310
E1E1E1E1E1E1E1E1E1E1E1E1E1E1E1E1E1E1E1E1E1E1E1E1E1E1E1E1E1E1E1E1E1E1E1E1E1E1E1E1E1E1E1E1E1E1E1E1E1E1E1E1E1E1E1E1E1E1E1E1E1E1E1E1E1E1E1E1E1E1BEE1E1E1E1E1E1E1E128E1E1E1E1E1E10F0F0F0F0F0F0FE10F0F0F0F0FE10F0F0F0F0F0FE1E1E1E1E1E1E1E1E1E1E1E1E1E10F0F0F0F0F0F0F
310
0F0F0FE1E1E1E1E1E1E1E1E1E1E1E1E1E1E1E1E1E1E1E1E1E1E1E1E1E1E1E1E1E1E1E1E128E1BEE1E1E1E1E1E1E1E1E1E1E1E1E1E1E1E1E1E1E1E1E1E1E1E1E1E1E1E1E1E1E1E1E1E1E1E1E1E1E1E1E1E1E1E1E1E1E1E1E1E1E1E1E1E1E1E1E1E1E1E1E1E1E1E1E1E1E1E1E1E1E1E1E1E1E1E1E1E1E1E1E1E1E1E1E1E1E1E1
310
E1E1E1E1E1E1E1E1E1E1E1E1E1E1E1E1E1E1E1E1E1E1E1E1E1E1E1E1E1E1E1E1E1E1E1E1E1E1E1E1E1E1E1E1E1E1E1E1E1E1E1E1E1E1E1E1E1E1E1E1E1E1E1E1E1E1E1E1E1E1E1E1BEE1E1E1E1E1E1E1E128E1E1E1E1E1E1E1E1E1E1E1E1E1E1E1E1E1E1E1E1E1E1E1E1E1E1E1E1E1E1E1E1E1E1E1E1E1E1E1E10F0F0F0F0F
310
0FE10FE1E10F0F0FE1E1E1E1E1E1E1E1E1E1E1E1E1E1E1E1E1E1E1E1E1E1E1E1E1E1E1E1E1E128E1BEE1E1E1E1E1E1E1E1E1E1E1E1E1E1E1E1E1E1E1E1E1E1E1E1E1E1E1E1E1E1E1E1E1E1E1E1E1E1E1E1E1E1E1E1E1E1E1E1E1E1E1E1E1E1E1E1E1E1E1E1E1E1E1E1E1E1E1E1E1E1E1E1E1E1E1E1E1E1E1E1E1E1E1E1E1E1
310
E1E1E1E1E1E1E1E1E1E1E1E1E1E1E1E1E1E1E1E1E1E1E1E1E1E1E1E1E1E1E1E1E1E1E1E1E1E1E1E1E1E1E1E1E1E1E1E1E1E1E1E1E1E1E1E1E1E1E1E1E1E1E1E1E1E1E1E1E1E1E1E1E1E1BEE1E1E1E1E1E1E1E128E1E1E1E1E1E1E1E1E1E1E1E1E1E1E1E1E1E1E1E1E1E1E1E1E1E1E1E1E1E1E1E1E1E1E1E1E1E1E1E10F0F0F
310
0FE1E1E10FE1E10F0F0FE1E1E1E1E1E1E1E1E1E1E1E1E1E1E1E1E1E1E1E1E1E1E1E1E1E1E1E1E1E128E1BEE1E1E1E1E1E1E1E1E1E1E1E1E1E1E1E1E1E1E1E1E1E1E1E1E1E1E1E1E1E1E1E1E1E1E1E1E1E1E1E1E1E1E1E1E1E1E1E1E1E1E1E1E1E1E1E1E1E1E1E1E1E1E1E1E1E1E1E1E1E1E1E1E1E1E1E1E1E1E1E1E1E1E1E1
310
E1E1E1E1E1E1E1E1E1E1E1E1E1E1E1E1E1E1E1E1E1E1E1E1E1E1E1E1E1E1E1E1E1E1E1E1E1E1E1E1E1E1E1E1E1E1E1E1E1E1E1E1E1E1E1E1E1E1E1E1E1E1E1E1E1E1E1E1E1E1E1E1E1E1E1E1BEE1E1E1E1E1E1E1E128E1E1E1E1E1E1E1E1E1E1E1E1E1E1E1E1E1E1E1E1E1E1E1E1E1E1E1E1E1E1E1E1E1E1E1E1E1E1E1E1E1
310
0F0F0F0F0FE10FE1E10F0F0FE1E1E1E1E1E1E1E1E1E1E1E1E1E1E1E1E1E1E1E1E1E1E1E1E1E1E1E1E1E128E1BEE1E1E1E1E1E1E1E1E1E1E1E1E1E1E1E1E1E1E1E1E1E1E1E1E1E1E1E1E1E1E1E1E1E1E1E1E1E1E1E1E1E1E1E1E1E1E1E1E1E1E1E1E1E1E1E1E1E1E1E1E1E1E1E1E1E1E1E1E1E1E1E1E1E1E1E1E1E1E1E1E1E1
310
E1E1E1E1E1E1E1E1E1E1E1E1E1E1E1E1E1E1E1E1E1E1E1E1E1E1E1E1E1E1E1E1E1E1E1E1E1E1E1E1E1E1E1E1E1E1E1E1E1E1E1E1E1E1E1E1E1E1E1E1E1E1E1E1E1E1E1E1E1E1E1E1E1E1E1E1E1E1BEE1E1E1E1E1E1E1E128E1E1E1E1E1E1E1E1E1E1E1E1E1E1E1E1E1E1E1E1E1E1E1E1E1E1E1E1E1E1E1E1E1E1E1E1E1E1E1
310
E1E1E10FE10F0F0F0FE1E10F0F0FE1E1E1E1E1E1E1E1E1E1E1E1E1E1E1E1E1E1E1E1E1E1E1E1E1E1E1E1E1E128E1BEE1E1E1E1E1E1E1E1E1E1E1E1E1E1E1E1E1E1E1E1E1E1E1E1E1E1E1E1E1E1E1E1E1E1E1E1E1E1E1E1E1E1E1E1E1E1E1E1E1E1E1E1E1E1E1E1E1E1E1E1E1E1E1E1E1E1E1E1E1E1E1E1E1E1E1E1E1E1E1E1
310
E1E1E1E1E1E1E1E1E1E1E1E1E1E1E1E1E1E1E1E1E1E1E1E1E1E1E1E1E1E1E1E1E1E1E1E1E1E1E1E1E1E1E1E1E1E1E1E1E1E1E1E1E1E1E1E1E1E1E1E1E1E1E1E1E1E1E1E1E1E1E1E1E1E1E1E1E1E1E1E1BEE1E1E1E1E1E1E1E128E1E1E1E1E1E1E1E1E1E1E1E1E1E1E1E1E1E1E1E1E1E1E1E1E1E1E1E1E1E1E1E1E1E1E1E1E1
310
E1E1E1E1E1E10F0FE10F0F0FE10F0F0FE1E1E1E1E1E1E1E1E1E1E1E1E1E1E1E1E1E1E1E1E1E1E1E1E1E1E1E1E1E128E1BEE1E1E1E1E1E1E1E1E1E1E1E1E1E1E1E1E1E1E1E1E1E1E1E1E1E1E1E1E1E1E1E1E1E1E1E1E1E1E1E1E1E1E1E1E1E1E1E1E1E1E1E1E1E1E1E1E1E1E1E1E1E1E1E1E1E1E1E1E1E1E1E1E1E1E1E1E1E1
310
E1E1E1E1E1E1E1E1E1E1E1E1E1E1E1E1E1E1E1E1E1E1E1E1E1E1E1E1E1E1E1E1E1E1E1E1E1E1E1E1E1E1E1E1E1E1E1E1E1E1E1E1E1E1E1E1E1E1E1E1E1E1E1E1E1E1E1E1E1E1E1E1E1E1E1E1E1E1E1E1E1E1BEE1E1E1E1E1E1E1E128E1E1E1E1E1E1E1E1E1E1E1E1E1E1E1E1E1E1E1E1E1E1E1E1E1E1E1E1E1E1E1E1E1E1E1
310
E1E1E1E1E1E1E1E1E1E10F0FE10F0F0F0F0FE1E1E1E1E1E1E1E1E1E1E1E1E1E1E1E1E1E1E1E1E1E1E1E1E1E1E1E1E1E128E1BEE1E1E1E1E1E1E1E1E1E1E1E1E1E1E1E1E1E1E1E1E1E1E1E1E1E1E1E1E1E1E1E1E1E1E1E1E1E1E1E1E1E1E1E1E1E1E1E1E1E1E1E1E1E1E1E1E1E1E1E1E1E1E1E1E1E1E1E1E1E1E1E1E1E1E1E1
310
E1E1E1E1E1E1E1E1E1E1E1E1E1E1E1E1E1E1E1E1E1E1E1E1E1E1E1E1E1E1E1E1E1E1E1E1E1E1E1E1E1E1E1E1E1E1E1E1E1E1E1E1E1E1E1E1E1E1E1E1E1E1E1E1E1E1E1E1E1E1E1E1E1E1E1E1E1E1E1E1E1E1E1E1BEE1E1E1E1E1E1E1E128E1E1E1E1E1E1E1E1E1E1E1E1E1E1E1E1E1E1E1E1E1E1E1E1E1E1E1E1E1E1E1E1E1
310
E1E1E1E1E1E1E1E1E1E1E1E1E1E10F0FE10F0F0FE1E1E1E1E1E1E1E1E1E1E1E1E1E1E10FE1E1E1E1E1E1E1E1E1E1E1E1E1E128E1BEE1E1E1E1E1E1E1E1E1E1E1E1E1E1E1E1E1E1E1E1E1E1E1E1E1E1E1E1E1E1E1E1E1E1E1E1E1E1E1E1E1E1E1E1E1E1E1E1E1E1E1E1E1E1E1E1E1E1E1E1E1E1E1E1E1E1E1E1E1E1E1E1E1E1
310
E1E1E1E1E1E1E1E1E1E1E1E1E1E1E1E1E1E1E1E1E1E1E1E1E1E1E1E1E1E1E1E1E1E1E1E1E1E1E1E1E1E1E1E1E1E1E1E1E1E1E1E1E1E1E1E1E1E1E1E1E1E1E1E1E1E1E1E1E1E1E1E1E1E1E1E1E1E1E1E1E1E1E1E1E1E1BEE1E1E1E1E1E1E1E128E1E1E1E1E1E1E1E1E1E1E1E1E1E1E1E1E1E1E1E1E1E1E1E1E1E1E1E1E1E1E1
310
E1E1E1E1E1E1E1E1E1E1E1E1E1E1E1E1E1E1E1E1E1E1E1E1E1E1E1E1E1E1E1E1E1E1E10F0FE1E10FE1E1E1E1E1E1E1E1E1E1E1E128E1BEE1E1E1E1E1E1E1E1E1E1E1E1E1E1E1E1E1E1E1E1E1E1E1E1E1E1E1E1E1E1E1E1E1E1E1E1E1E1E1E1E1E1E1E1E1E1E1E1E1E1E1E1E1E1E1E1E1E1E1E1E1E1E1E1E1E1E1E1E1E1E1E1
310
E1E1E1E1E1E1E1E1E1E1E1E1E1E1E1E1E1E1E1E1E1E1E1E1E1E1E1E1E1E1E1E1E1E1E1E1E1E1E1E1E1E1E1E1E1E1E1E1E1E1E1E1E1E1E1E1E1E1E1E1E1E1E1E1E1E1E1E1E1E1E1E1E1E1E1E1E1E1E1E1E1E1E1E1E1E1E1E1BEE1E1E1E1E1E1E1E128E1E1E1E1E1E1E1E1E1E1E1E1E1E1E1E1E1E1E1E1E1E1E1E1E1E1E1E1E1
310
E1E1E1E1E1E1E1E1E1E1E1E1E1E1E1E1E1E1E1E1E1E1E1E1E1E1E1E1E1E1E1E1E1E1E10F0FE1E10F0FE1E1E1E1E1E1E1E1E1E1E1E1E128E1BEE1E1E1E1E1E1E1E1E1E1E1E1E1E1E1E1E1E1E1E1E1E1E1E1E1E1E1E1E1E1E1E1E1E1E1E1E1E1E1E1E1E1E1E1E1E1E1E1E1E1E1E1E1E1E1E1E1E1E1E1E1E1E1E1E1E1E1E1E1E1
310
E1E1E1E1E1E1E1E1E1E1E1E1E1E1E1E1E1E1E1E1E1E1E1E1E1E1E1E1E1E1E1E1E1E1E1E1E1E1E1E1E1E1E1E1E1E1E1E1E1E1E1E1E1E1E1E1E1E1E1E1E1E1E1E1E1E1E1E1E1E1E1E1E1E1E1E1E1E1E1E1E1E1E1E1E1E1E1E1E1E1BEE1E1E1E1E1E1E1E128E1E1E1E1E1E1E1E1E1E1E1E1E1E1E1E1E1E1E1E1E1E1E1E1E1E1E1
310
E1E1E1E1E1E1E1E1E1E1E1E1E1E1E1E1E1E1E1E1E1E1E1E1E1E1E1E1E1E1E1E1E1E1E10F0FE1E10F0FE1E1E1E1E1E1E1E1E1E1E1E1E1E1E128E1BEE1E1E1E1E1E1E1E1E1E1E1E1E1E1E1E1E1E1E1E1E1E1E1E1E1E1E1E1E1E1E1E1E1E1E1E1E1E1E1E1E1E1E1E1E1E1E1E1E1E1E1E1E1E1E1E1E1E1E1E1E1E1E1E1E1E1E1E1
310
E1E1E1E1E1E1E1E1E1E1E1E1E1E1E1E1E1E1E1E1E1E1E1E1E1E1E1E1E1E1E1E1E1E1E1E1E1E1E1E1E1E1E1E1E1E1E1E1E1E1E1E1E1E1E1E1E1E1E1E1E1E1E1E1E1E1E1E1E1E1E1E1E1E1E1E1E1E1E1E1E1E1E1E1E1E1E1E1E1E1E1E1BEE1E1E1E1E1E1E1E128E1E1E1E1E1E1E1E1E1E1E1E1E1E1E1E1E1E1E1E1E1E1E1E1E1
310
E1E1E1E1E1E1E1E1E1E1E1E1E1E1E1E1E1E1E1E1E1E1E1E1E1E1E1E1E1E1E1E1E1E1E1E10FE1E10F0FE1E1E1E1E1E1E1E1E1E1E1E1E1E1E1E1E128E1BEE1E1E1E1E1E1E1E1E1E1E1E1E1E1E1E1E1E1E1E1E1E1E1E1E1E1E1E1E1E1E1E1E1E1E1E1E1E1E1E1E1E1E1E1E1E1E1E1E1E1E1E1E1E1E1E1E1E1E1E1E1E1E1E1E1E1
310
E1E1E1E1E1E1E1E1E1E1E1E1E1E1E1E1E1E1E1E1E1E1E1E1E1E1E1E1E1E1E1E1E1E1E1E1E1E1E1E1E1E1E1E1E1E1E1E1E1E1E1E1E1E1E1E1E1E1E1E1E1E1E1E1E1E1E1E1E1E1E1E1E1E1E1E1E1E1E1E1E1E1E1E1E1E1E1E1E1E1E1E1E1E1BEE1E1E1E1E1E1E1E128E1E1E1E1E1E1E1E1E1E1E1E1E1E1E1E1E1E1E1E1E1E1E1
310
E1E1E1E1E1E1E1E1E1E1E1E1E1E1E1E1E1E1E1E1E1E1E1E1E1E1E1E1E1E1E1E1E1E1E1E10F0FE1E10FE1E1E1E1E1E1E1E1E1E1E1E1E1E1E1E1E1E1E128E1BEE1E1E1E1E1E1E1E1E1E1E1E1E1E1E1E1E1E1E1E1E1E1E1E1E1E1E1E1E1E1E1E1E1E1E1E1E1E1E1E1E1E1E1E1E1E1E1E1E1E1E1E1E1E1E1E1E1E1E1E1E1E1E1E1
310
E1E1E1E1E1E1E1E1E1E1E1E1E1E1E1E1E1E1E1E1E1E1E1E1E1E1E1E1E1E1E1E1E1E1E1E1E1E1E1E1E1E1E1E1E1E1E1E1E1E1E1E1E1E1E1E1E1E1E1E1E1E1E1E1E1E1E1E1E1E1E1E1E1E1E1E1E1E1E1E1E1E1E1E1E1E1E1E1E1E1E1E1E1E1E1E1BEE1E1E1E1E1E1E1E128E1E1E1E1E1E1E1E1E1E1E1E1E1E1E1E1E1E1E1E1E1
310
E1E1E1E1E1E1E1E1E1E1E1E1E1E1E1E1E1E1E1E1E1E1E1E1E1E1E1E1E1E1E1E1E1E1E1E10F0FE1E10F0FE1E1E1E1E1E1E1E1E1E1E1E1E1E1E1E1E1E1E1E128E1BEE1E1E1E1E1E1E1E1E1E1E1E1E1E1E1E1E1E1E1E1E1E1E1E1E1E1E1E1E1E1E1E1E1E1E1E1E1E1E1E1E1E1E1E1E1E1E1E1E1E1E1E1E1E1E1E1E1E1E1E1E1E1
310
E1E1E1E1E1E1E1E1E1E1E1E1E1E1E1E1E1E1E1E1E1E1E1E1E1E1E1E1E1E1E1E1E1E1E1E1E1E1E1E1E1E1E1E1E1E1E1E1E1E1E1E1E1E1E1E1E1E1E1E1E1E1E1E1E1E1E1E1E1E1E1E1E1E1E1E1E1E1E1E1E1E1E1E1E1E1E1E1E1E1E1E1E1E1E1E1E1E1BEE1E1E1E1E1E1E1E128E1E1E1E1E1E1E1E1E1E1E1E1E1E1E1E1E1E1E1
310
E1E1E1E1E1E1E1E1E1E1E1E1E1E1E1E1E1E1E1E1E1E1E1E1E1E1E1E1E1E1E1E1E1E1E1E10F0FE1E10F0FE1E1E1E1E1E1E1E1E1E1E1E1E1E1E1E1E1E1E1E1E1E128E1BEE1E1E1E1E1E1E1E1E1E1E1E1E1E1E1E1E1E1E1E1E1E1E1E1E1E1E1E1E1E1E1E1E1E1E1E1E1E1E1E1E1E1E1E1E1E1E1E1E1E1E1E1E1E1E1E1E1E1E1E1
310
E1E1E1E1E1E1E1E1E1E1E1E1E1E1E1E1E1E1E1E1E1E1E1E1E1E1E1E1E1E1E1E1E1E1E1E1E1E1E1E1E1E1E1E1E1E1E1E1E1E1E1E1E1E1E1E1E1E1E1E1E1E1E1E1E1E1E1E1E1E1E1E1E1E1E1E1E1E1E1E1E1E1E1E1E1E1E1E1E1E1E1E1E1E1E1E1E1E1E1E1BEE1E1E1E1E1E1E1E128E1E1E1E1E1E1E1E1E1E1E1E1E1E1E1E1E1
310
E1E1E1E1E1E1E1E1E1E1E1E1E1E1E1E1E1E1E1E1E1E1E1E1E1E1E1E1E1E1E1E1E1E1E1E10F0F0F0F0F0FE1E1E1E1E1E1E1E1E1E1E1E1E1E1E1E1E1E1E1E1E1E1E1E128E1BEE1E1E1E1E1E1E1E1E1E1E1E1E1E1E1E1E1E1E1E1E1E1E1E1E1E1E1E1E1E1E1E1E1E1E1E1E1E1E1E1E1E1E1E1E1E1E1E1E1E1E1E1E1E1E1E1E1E1
310
E1E1E1E1E1E1E1E1E1E1E1E1E1E1E1E1E1E1E1E1E1E1E1E1E1E1E1E1E1E1E1E1E1E1E1E1E1E1E1E1E1E1E1E1E1E1E1E1E1E1E1E1E1E1E1E1E1E1E1E1E1E1E1E1E1E1E1E1E1E1E1E1E1E1E1E1E1E1E1E1E1E1E1E1E1E1E1E1E1E1E1E1E1E1E1E1E1E1E1E1E1E1BEE1E1E1E1E1E1E1E128E1E1E1E1E1E1E1E1E1E1E1E1E1E1E1
310
E1E1E1E1E1E1E1E1E1E1E1E1E1E1E1E1E1E1E1E1E1E1E1E1E1E1E1E1E1E1E1E1E1E1E1E1E10F0F0F0F0FE1E1E1E1E1E1E1E1E1E1E1E1E1E1E1E1E1E1E1E1E1E1E1E1E1E128E1BEE1E1E1E1E1E1E1E1E1E1E1E1E1E1E1E1E1E1E1E1E1E1E1E1E1E1E1E1E1E1E1E1E1E1E1E1E1E1E1E1E1E1E1E1E1E1E1E1E1E1E1E1E1E1E1E1
310
E1E1E1E1E1E1E1E1E1E1E1E1E1E1E1E1E1E1E1E1E1E1E1E1E1E1E1E1E1E1E1E1E1E1E1E1E1E1E1E1E1E1E1E1E1E1E1E1E1E1E1E1E1E1E1E1E1E1E1E1E1E1E1E1E1E1E1E1E1E1E1E1E1E1E1E1E1E1E1E1E1E1E1E1E1E1E1E1E1E1E1E1E1E1E1E1E1E1E1E1E1E1E1E1BEE1E1E1E1E1E1E1E128E1E1E1E1E1E1E1E1E1E1E1E1E1
310
E1E1E1E1E1E1E1E1E1E1E1E1E1E1E1E1E1E1E1E1E1E1E1E1E1E1E1E1E10FE1E1E1E1E1E1E1E10F0F0F0F0FE1E1E1E1E1E1E1E1E1E1E1E1E1E1E1E1E1E1E1E1E1E1E1E1E1E1E128E1BEE1E1E1E1E1E1E1E1E1E1E1E1E1E1E1E1E1E1E1E1E1E1E1E1E1E1E1E1E1E1E1E1E1E1E1E1E1E1E1E1E1E1E1E1E1E1E1E1E1E1E1E1E1E1
310
E1E1E1E1E1E1E1E1E1E1E1E1E1E1E1E1E1E1E1E1E1E1E1E1E1E1E1E1E1E1E1E1E1E1E1E1E1E1E1E1E1E1E1E1E1E1E1E1E1E1E1E1E1E1E1E1E1E1E1E1E1E1E1E1E1E1E1E1E1E1E1E1E1E1E1E1E1E1E1E1E1E1E1E1E1E1E1E1E1E1E1E1E1E1E1E1E1E1E1E1E1E1E1E1E1E1BEE1E1E1E1E1E1E1E128E1E1E1E1E1E1E1E1E1E1E1
310
E1E1E1E1E1E1E1E1E1E1E1E1E1E1E1E1E1E1E1E1E1E1E1E1E1E1E1E1E10F0F0F0F0FE1E1E1E1E1E1E10FE1E1E1E1E1E1E1E1E1E1E1E1E1E1E1E1E1E1E1E1E1E1E1E1E1E1E1E1E1E128E1BEE1E1E1E1E1E1E1E1E1E1E1E1E1E1E1E1E1E1E1E1E1E1E1E1E1E1E1E1E1E1E1E1E1E1E1E1E1E1E1E1E1E1E1E1E1E1E1E1E1E1E1E1
310
E1E1E1E1E1E1E1E1E1E1E1E1E1E1E1E1E1E1E1E1E1E1E1E1E1E1E1E1E1E1E1E1E1E1E1E1E1E1E1E1E1E1E1E1E1E1E1E1E1E1E1E1E1E1E1E1E1E1E1E1E1E1E1E1E1E1E1E1E1E1E1E1E1E1E1E1E1E1E1E1E1E1E1E1E1E1E1E1E1E1E1E1E1E1E1E1E1E1E1E1E1E1E1E1E1E1E1E1BEE1E1E1E1E1E1E1E128E1E1E1E1E1E1E1E1E1
310
E1E1E1E1E1E1E1E1E1E1E1E1E1E1E1E1E1E1E1E1E1E1E1E1E1E1E1E1E1E1E10FE10F0FE10F0FE1E1E1E1E1E1E1E1E1E1E1E1E1E1E1E1E1E1E1E1E1E1E1E1E1E1E1E1E1E1E1E1E1E1E1E128E1BEE1E1E1E1E1E1E1E1E1E1E1E1E1E1E1E1E1E1E1E1E1E1E1E1E1E1E1E1E1E1E1E1E1E1E1E1E1E1E1E1E1E1E1E1E1E1E1E1E1E1
310
E1E1E1E1E1E1E1E1E1E1E1E1E1E1E1E1E1E1E1E1E1E1E1E1E1E1E1E1E1E1E1E1E1E1E1E1E1E1E1E1E1E1E1E1E1E1E1E1E1E1E1E1E1E1E1E1E1E1E1E1E1E1E1E1E1E1E1E1E1E1E1E1E1E1E1E1E1E1E1E1E1E1E1E1E1E1E1E1E1E1E1E1E1E1E1E1E1E1E1E1E1E1E1E1E1E1E1E1E1E1BEE1E1E1E1E1E1E1E128E1E10F0F0F0F0F
310
0F0F0F0F0FE1E1E1E1E1E1E1E1E1E1E1E1E1E1E1E1E1E1E1E1E1E1E1E1E1E1E1E10FE10F0F0F0FE10FE1E1E1E1E1E1E1E1E1E1E1E1E1E1E1E1E1E1E1E1E1E1E1E1E1E1E1E1E1E1E1E1E1E1E128E1BEE1E1E1E1E1E1E1E1E1E1E1E1E1E1E1E1E1E1E1E1E1E1E1E1E1E1E1E1E1E1E1E1E1E1E1E1E1E1E1E1E1E1E1E1E1E1E1E1
310
E1E1E1E1E1E1E1E1E1E1E1E1E1E1E1E1E1E1E1E1E1E1E1E1E1E1E1E1E1E1E1E1E1E1E1E1E1E1E1E1E1E1E1E1E1E1E1E1E1E1E1E1E1E1E1E1E1E1E1E1E1E1E1E1E1E1E1E1E1E1E1E1E1E1E1E1E1E1E1E1E1E1E1E1E1E1E1E1E1E1E1E1E1E1E1E1E1E1E1E1E1E1E1E1E1E1E1E1E1E1E1E1BEE1E1E1E1E1E1E1E128E1E10F0F0F
310
0F0F0F0F0F0F0FE1E1E1E1E1E1E1E1E1E1E1E1E1E1E1E1E1E1E1E1E1E1E1E1E1E1E1E10FE10F0F0F0F0F0F0F0FE1E1E1E1E1E1E1E1E1E1E1E1E1E1E1E1E1E1E1E1E1E1E1E1E1E1E1E1E1E1E1E1E128E1BEE1E1E1E1E1E1E1E1E1E1E1E1E1E1E1E1E1E1E1E1E1E1E1E1E1E1E1E1E1E1E1E1E1E1E1E1E1E1E1E1E1E1E1E1E1E1
310
E1E1E1E1E1E1E1E1E1E1E1E1E1E1E1E1E1E1E1E1E1E1E1E1E1E1E1E1E1E1E1E1E1E1E1E1E1E1E1E1E1E1E1E1E1E1E1E1E1E1E1E1E1E1E1E1E1E1E1E1E1E1E1E1E1E1E1E1E1E1E1E1E1E1E1E1E1E1E1E1E1E1E1E1E1E1E1E1E1E1E1E1E1E1E1E1E1E1E1E1E1E1E1E1E1E1E1E1E1E1E1E1E1E1BEE1E1E1E1E1E1E1E128E1E1E1
310
0FE10F0FE1E1E1E10FE1E1E1E1E1E1E1E1E1E1E1E1E1E1E1E1E1E1E1E1E1E1E1E1E1E1E1E10FE10F0F0F0F0F0F0F0FE1E1E1E1E1E1E1E1E1E1E1E1E1E1E1E1E1E1E1E1E1E1E1E1E1E1E1E1E1E1E1E1E128E1BEE1E1E1E1E1E1E1E1E1E1E1E1E1E1E1E1E1E1E1E1E1E1E1E1E1E1E1E1E1E1E1E1E1E1E1E1E1E1E1E1E1E1E1E1
310
E1E1E1E1E1E1E1E1E1E1E1E1E1E1E1E1E1E1E1E1E1E1E1E1E1E1E1E1E1E1E1E1E1E1E1E1E1E1E1E1E1E1E1E1E1E1E1E1E1E1E1E1E1E1E1E1E1E1E1E1E1E1E1E1E1E1E1E1E1E1E1E1E1E1E1E1E1E1E1E1E1E1E1E1E1E1E1E1E1E1E1E1E1E1E1E1E1E1E1E1E1E1E1E1E1E1E1E1E1E1E1E1E1E1E1E1BEE1E1E1E1E1E1E1E128E1
310
E10F0FE10F0F0F0F0F0F0F0F0F0F0F0F0F0F0F0F0F0F0F0F0F0F0F0F0FE1E1E1E1E1E1E1E1E1E10FE10F0F0F0FE10FE10FE10FE1E1E1E1E1E1E1E1E1E1E1E1E1E1E1E1E1E1E1E1E1E1E1E1E1E1E1E1E1E1E128E1BEE1E1E1E1E1E1E1E1E1E1E1E1E1E1E1E1E1E1E1E1E1E1E1E1E1E1E1E1E1E1E1E1E1E1E1E1E1E1E1E1E1E1
310
E1E1E1E1E1E1E1E1E1E1E1E1E1E1E1E1E1E1E1E1E1E1E1E1E1E1E1E1E1E1E1E1E1E1E1E1E1E1E1E1E1E1E1E1E1E1E1E1E1E1E1E1E1E1E1E1E1E1E1E1E1E1E1E1E1E1E1E1E1E1E1E1E1E1E1E1E1E1E1E1E1E1E1E1E1E1E1E1E1E1E1E1E1E1E1E1E1E1E1E1E1E1E1E1E1E1E1E1E1E1E1E1E1E1E1E1E1E1BEE1E1E1E1E1E1E1E1
310
28E1E10F0FE10F0F0F0F0F0F0F0F0F0F0F0F0F0F0F0F0F0F0F0F0F0F0F0F0F0FE1E1E1E1E1E1E1E1E10FE10F0FE1E1E10FE1E10F0F0FE1E1E1E1E1E1E1E1E1E1E1E1E1E1E1E1E1E1E1E1E1E1E1E1E1E1E1E1E1E128E1BEE1E1E1E1E1E1E1E1E1E1E1E1E1E1E1E1E1E1E1E1E1E1E1E1E1E1E1E1E1E1E1E1E1E1E1E1E1E1E1E1
310
E1E1E1E1E1E1E1E1E1E1E1E1E1E1E1E1E1E1E1E1E1E1E1E1E1E1E1E1E1E1E1E1E1E1E1E1E1E1E1E1E1E1E1E1E1E1E1E1E1E1E1E1E1E1E1E1E1E1E1E1E1E1E1E1E1E1E1E1E1E1E1E1E1E1E1E1E1E1E1E1E1E1E1E1E1E1E1E1E1E1E1E1E1E1E1E1E1E1E1E1E1E1E1E1E1E1E1E1E1E1E1E1E1E1E1E1E1E1E1E1BEE1E1E1E1E1E1
310
E1E128E1E10FE1E1E1E1E1E1E1E1E1E1E1E1E1E1E1E1E1E1E1E1E1E1E1E1E1E10F0FE1E1E1E1E1E1E1E1E10F0FE10F0FE1E10FE1E10F0F0FE1E1E1E1E1E1E1E1E1E1E1E1E1E1E1E1E1E1E1E1E1E1E1E1E1E1E1E1E1E128E1BEE1E1E1E1E1E1E1E1E1E1E1E1E1E1E1E1E1E1E1E1E1E1E1E1E1E1E1E1E1E1E1E1E1E1E1E1E1E1
310
E1E1E1E1E1E1E1E1E1E1E1E1E1E1E1E1E1E1E1E1E1E1E1E1E1E1E1E1E1E1E1E1E1E1E1E1E1E1E1E1E1E1E1E1E1E1E1E1E1E1E1E1E1E1E1E1E1E1E1E1E1E1E1E1E1E1E1E1E1E1E1E1E1E1E1E1E1E1E1E1E1E1E1E1E1E1E1E1E1E1E1E1E1E1E1E1E1E1E1E1E1E1E1E1E1E1E1E1E1E1E1E1E1E1E1E1E1E1E1E1E1E1BEE1E1E1E1
310
E1E1E1E128E1E10F0F0F0F0F0F0F0F0F0F0F0F0F0F0F0F0F0F0F0F0F0F0F0F0F0F0F0F0F0FE1E1E1E1E1E1E1E1E10F0FE1E10F0F0FE1E10F0F0FE1E1E1E1E1E1E1E1E1E1E1E1E1E1E1E1E1E1E1E1E1E1E1E1E1E1E1E1E1E128E1BEE1E1E1E1E1E1E1E1E1E1E1E1E1E1E1E1E1E1E1E1E1E1E1E1E1E1E1E1E1E1E1E1E1E1E1E1
310
E1E1E1E1E1E1E1E1E1E1E1E1E1E1E1E1E1E1E1E1E1E1E1E1E1E1E1E1E1E1E1E1E1E1E1E1E1E1E1E1E1E1E1E1E1E1E1E1E1E1E1E1E1E1E1E1E1E1E1E1E1E1E1E1E1E1E1E1E1E1E1E1E1E1E1E1E1E1E1E1E1E1E1E1E1E1E1E1E1E1E1E1E1E1E1E1E1E1E1E1E1E1E1E1E1E1E1E1E1E1E1E1E1E1E1E1E1E1E1E1E1E1E1E1BEE1E1
310
E1E1E1E1E1E128E1E10F0F0F0F0F0F0F0F0F0F0F0F0F0F0F0F0F0F0F0F0F0F0F0F0F0F0F0F0F0FE1E1E1E1E1E1E1E1E1E1E10F0FE1E10FE1E10F0F0FE1E1E1E1E1E1E1E1E1E1E1E1E1E1E1E1E1E1E1E1E1E1E1E1E1E1E1E1E1E128E1BEE1E1E1E1E1E1E1E1E1E1E1E1E1E1E1E1E1E1E1E1E1E1E1E1E1E1E1E1E1E1E1E1E1E1
310
E1E1E1E1E1E1E1E1E1E1E1E1E1E1E1E1E1E1E1E1E1E1E1E1E1E1E1E1E1E1E1E1E1E1E1E1E1E1E1E1E1E1E1E1E1E1E1E1E1E1E1E1E1E1E1E1E1E1E1E1E1E1E1E1E1E1E1E1E1E1E1E1E1E1E1E1E1E1E1E1E1E1E1E1E1E1E1E1E1E1E1E1E1E1E1E1E1E1E1E1E1E1E1E1E1E1E1E1E1E1E1E1E1E1E1E1E1E1E1E1E1E1E1E1E1E1BE
310
E1E1E1E1E1E1E1E128E1E10F0F0F0FE10F0F0FE1E10F0F0F0FE10F0F0F0F0FE1E1E1E1E1E1E1E1E1E1E1E1E1E1E1E1E1E1E1E1E1E1E10F0F0F0F0F0F0F0FE1E1E1E1E1E1E1E1E1E1E1E1E1E1E1E1E1E1E1E1E1E1E1E1E1E1E1E1E1E128E1BEE1E1E1E1E1E1E1E1E1E1E1E1E1E1E1E1E1E1E1E1E1E1E1E1E1E1E1E1E1E1E1E1
310
E1E1E1E1E1E1E1E1E1E1E1E1E1E1E1E1E1E1E1E1E1E1E1E1E1E1E1E1E1E1E1E1E1E1E1E1E1E1E1E1E1E1E1E1E1E1E1E1E1E1E1E1E1E1E1E1E1E1E1E1E1E1E1E1E1E1E1E1E1E1E1E1E1E1E1E1E1E1E1E1E1E1E1E1E1E1E1E1E1E1E1E1E1E1E1E1E1E1E1E1E1E1E1E1E1E1E1E1E1E1E1E1E1E1E1E1E1E1E1E1E1E1E1E1E1E1E1
310
E1BEE1E1E1E1E1E1E1E128E1E10F0F0F0FE10F0F0F0F0F0F0F0F0F0FE10F0F0F0F0FE1E1E1E1E1E1E1E1E1E1E1E1E1E1E1E1E1E1E1E1E1E1E1E10F0F0F0F0F0FE1E1E1E1E1E1E1E1E1E1E1E1E1E1E1E1E1E1E1E1E1E1E1E1E1E1E1E1E1E128E1BEE1E1E1E1E1E1E1E1E1E1E1E1E1E1E1E1E1E1E1E1E1E1E1E1E1E1E1E1E1E1
310
E1E1E1E1E1E1E1E1E1E1E1E1E1E1E1E1E1E1E1E1E1E1E1E1E1E1E1E1E1E1E1E1E1E1E1E1E1E1E1E1E1E1E1E1E1E1E1E1E1E1E1E1E1E1E1E1E1E1E1E1E1E1E1E1E1E1E1E1E1E1E1E1E1E1E1E1E1E1E1E1E1E1E1E1E1E1E1E1E1E1E1E1E1E1E1E1E1E1E1E1E1E1E1E1E1E1E1E1E1E1E1E1E1E1E1E1E1E1E1E1E1E1E1E1E1E1E1
310
E1E1E1BEE1E1E1E1E1E1E1E128E1E10F0F0F0F0F0F0F0F0FE10F0F0F0FE10F0F0F0F0F0FE1E1E1E1E1E1E1E1E1E1E1E1E1E1E1E1E1E1E1E1E1E1E1E1E1E1E1E10FE1E1E1E1E1E1E1E1E1E1E1E1E1E1E1E1E1E1E1E1E1E1E1E1E1E1E1E1E1E1E128E1BEE1E1E1E1E1E1E1E1E1E1E1E1E1E1E1E1E1E1E1E1E1E1E1E1E1E1E1E1
310
E1E1E1E1E1E1E1E1E1E1E1E1E1E1E1E1E1E1E1E1E1E1E1E1E1E1E1E1E1E1E1E1E1E1E1E1E1E1E1E1E1E1E1E1E1E1E1E1E1E1E1E1E1E1E1E1E1E1E1E1E1E1E1E1E1E1E1E1E1E1E1E1E1E1E1E1E1E1E1E1E1E1E1E1E1E1E1E1E1E1E1E1E1E1E1E1E1E1E1E1E1E1E1E1E1E1E1E1E1E1E1E1E1E1E1E1E1E1E1E1E1E1E1E1E1E1E1
310
E1E1E1E1E1BEE1E1E1E1E1E1E1E128E1E1E1E1E1E1E1E1E1E1E1E1E1E1E1E1E1E1E1E1E1E1E1E1E1E1E1E1E1E1E1E1E1E1E1E1E1E1E1E1E1E1E1E1E1E1E1E1E1E1E1E1E1E1E1E1E1E1E1E1E1E1E1E1E1E1E1E1E1E1E1E1E1E1E1E1E1E1E1E1E1E1E128E1BEE1E1E1E1E1E1E1E1E1E1E1E1E1E1E1E1E1E1E1E1E1E1E1E1E1E1
310
E1E1E1E1E1E1E1E1E1E1E1E1E1E1E1E1E1E1E1E1E1E1E1E1E1E1E1E1E1E1E1E1E1E1E1E1E1E1E1E1E1E1E1E1E1E1E1E1E1E1E1E1E1E1E1E1E1E1E1E1E1E1E1E1E1E1E1E1E1E1E1E1E1E1E1E1E1E1E1E1E1E1E1E1E1E1E1E1E1E1E1E1E1E1E1E1E1E1E1E1E1E1E1E1E1E1E1E1E1E1E1E1E1E1E1E1E1E1E1E1E1E1E1E1E1E1E1
310
E1E1E1E1E1E1E1BEE1E1E1E1E1E1E1E128E1E1E1E1E1E1E1E1E1E1E1E1E1E1E1E1E1E1E1E1E1E1E1E1E1E1E1E1E1E1E1E1E1E1E1E1E1E1E1E1E1E1E1E1E1E1E1E1E1E1E1E1E1E1E1E1E1E1E1E1E1E1E1E1E1E1E1E1E1E1E1E1E1E1E1E1E1E1E1E1E1E1E128E1BEE1E1E1E1E1E1E1E1E1E1E1E1E1E1E1E1E1E1E1E1E1E1E1E1
310
E1E1E1E1E1E1E1E1E1E1E1E1E1E1E1E1E1E1E1E1E1E1E1E1E1E1E1E1E1E1E1E1E1E1E1E1E1E1E1E1E1E1E1E1E1E1E1E1E1E1E1E1E1E1E1E1E1E1E1E1E1E1E1E1E1E1E1E1E1E1E1E1E1E1E1E1E1E1E1E1E1E1E1E1E1E1E1E1E1E1E1E1E1E1E1E1E1E1E1E1E1E1E1E1E1E1E1E1E1E1E1E1E1E1E1E1E1E1E1E1E1E1E1E1E1E1E1
310
E1E1E1E1E1E1E1E1E1BEE1E1E1E1E1E1E1E128E1E1E1E1E1E1E1E1E1E1E1E1E1E1E1E1E1E1E1E1E1E1E1E1E1E1E1E1E1E1E1E1E1E1E1E1E1E1E1E1E1E1E1E1E1E1E1E1E1E1E1E1E1E1E1E1E1E1E1E1E1E1E1E1E1E1E1E1E1E1E1E1E1E1E1E1E1E1E1E1E1E1E128E1BEE1E1E1E1E1E1E1E1E1E1E1E1E1E1E1E1E1E1E1E1E1E1
310
E1E1E1E1E1E1E1E1E1E1E1E1E1E1E1E1E1E1E1E1E1E1E1E1E1E1E1E1E1E1E1E1E1E1E1E1E1E1E1E1E1E1E1E1E1E1E1E1E1E1E1E1E1E1E1E1E1E1E1E1E1E1E1E1E1E1E1E1E1E1E1E1E1E1E1E1E1E1E1E1E1E1E1E1E1E1E1E1E1E1E1E1E1E1E1E1E1E1E1E1E1E1E1E1E1E1E1E1E1E1E1E1E1E1E1E1E1E1E1E1E1E1E1E1E1E1E1
310
E1E1E1E1E1E1E1E1E1E1E1BEE1E1E1E1E1E1E1E128282828282828282828282828282828282828282828282828282828282828282828282828282828282828282828282828282828282828282828282828282828282828282828282828282828282828282828282828E1BEE1E1E1E1E1E1E1E1E1E1E1E1E1E1E1E1E1E1E1E1
310
E1E1E1E1E1E1E1E1E1E1E1E1E1E1E1E1E1E1E1E1E1E1E1E1E1E1E1E1E1E1E1E1E1E1E1E1E1E1E1E1E1E1E1E1E1E1E1E1E1E1E1E1E1E1E1E1E1E1E1E1E1E1E1E1E1E1E1E1E1E1E1E1E1E1E1E1E1E1E1E1E1E1E1E1E1E1E1E1E1E1E1E1E1E1E1E1E1E1E1E1E1E1E1E1E1E1E1E1E1E1E1E1E1E1E1E1E1E1E1E1E1E1E1E1E1E1E1
310
E1E1E1E1E1E1E1E1E1E1E1E1E1BEE1E1E1E1E1E1E1E1E1E1E1E1E1E1E1E1E1E1E1E1E1E1E1E1E1E1E1E1E1E1E1E1E1E1E1E1E1E1E1E1E1E1E1E1E1E1E1E1E1E1E1E1E1E1E1E1E1E1E1E1E1E1E1E1E1E1E1E1E1E1E1E1E1E1E1E1E1E1E1E1E1E1E1E1E1E1E1E1E1E1E1E1E1E1BEE1E1E1E1E1E1E1E1E1E1E1E1E1E1E1E1E1E1
310
E1E1E1E1E1E1E1E1E1E1E1E1E1E1E1E1E1E1E1E1E1E1E1E1E1E1E1E1E1E1E1E1E1E1E1E1E1E1E1E1E1E1E1E1E1E1E1E1E1E1E1E1E1E1E1E1E1E1E1E1E1E1E1E1E1E1E1E1E1E1E1E1E1E1E1E1E1E1E1E1E1E1E1E1E1E1E1E1E1E1E1E1E1E1E1E1E1E1E1E1E1E1E1E1E1E1E1E1E1E1E1E1E1E1E1E1E1E1E1E1E1E1E1E1E1E1E1
310
E1E1E1E1E1E1E1E1E1E1E1E1E1E1E1BEBEBEBEBEBEBEBEBEBEBEBEBEBEBEBEBEBEBEBEBEBEBEBEBEBEBEBEBEBEBEBEBEBEBEBEBEBEBEBEBEBEBEBEBEBEBEBEBEBEBEBEBEBEBEBEBEBEBEBEBEBEBEBEBEBEBEBEBEBEBEBEBEBEBEBEBEBEBEBEBEBEBEBEBEBEBEBEBEBEBEBEBEBEBEBEE1E1E1E1E1E1E1E1E1E1E1E1E1E1E1E1
310
E1E1E1E1E1E1E1E1E1E1E1E1E1E1E1E1E1E1E1E1E1E1E1E1E1E1E1E1E1E1E1E1E1E1E1E1E1E1E1E1E1E1E1E1E1E1E1E1E1E1E1E1E1E1E1E1E1E1E1E1E1E1E1E1
  0
XRECORD
  5
294B
102
{ACAD_REACTORS
330
2791
102
}
330
2791
100
AcDbXrecord
280
     1
102
MATERIAL
148
0.0
149
0.0
149
0.0
 93
        0
 94
      127
282
     0
 72
     0
 77
     0
171
     0
175
     0
179
     0
273
     0
  0
XRECORD
  5
2793
102
{ACAD_REACTORS
330
2791
102
}
330
2791
100
AcDbXrecord
280
     1
270
     1
271
     1
  0
XRECORD
  5
2792
102
{ACAD_REACTORS
330
2791
102
}
330
2791
100
AcDbXrecord
280
     1
270
     1
271
     1
  0
XRECORD
  5
2796
102
{ACAD_REACTORS
330
2791
102
}
330
2791
100
AcDbXrecord
280
     1
270
     1
271
     1
  0
XRECORD
  5
2795
102
{ACAD_REACTORS
330
2791
102
}
330
2791
100
AcDbXrecord
280
     1
270
     1
271
     1
  0
XRECORD
  5
2797
102
{ACAD_REACTORS
330
2791
102
}
330
2791
100
AcDbXrecord
280
     1
270
     1
271
     1
  0
XRECORD
  5
2794
102
{ACAD_REACTORS
330
2791
102
}
330
2791
100
AcDbXrecord
280
     1
270
     1
271
     1
  0
XRECORD
  5
294A
102
{ACAD_REACTORS
330
2789
102
}
330
2789
100
AcDbXrecord
280
     1
102
MATERIAL
148
0.0
149
0.0
149
0.0
 93
        0
 94
      127
282
     0
 72
     0
 77
     0
171
     0
175
     0
179
     0
273
     0
  0
XRECORD
  5
278B
102
{ACAD_REACTORS
330
2789
102
}
330
2789
100
AcDbXrecord
280
     1
270
     1
271
     1
  0
XRECORD
  5
278A
102
{ACAD_REACTORS
330
2789
102
}
330
2789
100
AcDbXrecord
280
     1
270
     1
271
     1
  0
XRECORD
  5
278E
102
{ACAD_REACTORS
330
2789
102
}
330
2789
100
AcDbXrecord
280
     1
270
     1
271
     1
  0
XRECORD
  5
278D
102
{ACAD_REACTORS
330
2789
102
}
330
2789
100
AcDbXrecord
280
     1
270
     1
271
     1
  0
XRECORD
  5
278F
102
{ACAD_REACTORS
330
2789
102
}
330
2789
100
AcDbXrecord
280
     1
270
     1
271
     1
  0
XRECORD
  5
278C
102
{ACAD_REACTORS
330
2789
102
}
330
2789
100
AcDbXrecord
280
     1
270
     1
271
     1
  0
XRECORD
  5
294C
102
{ACAD_REACTORS
330
2799
102
}
330
2799
100
AcDbXrecord
280
     1
102
MATERIAL
148
0.0
149
0.0
149
0.0
 93
        0
 94
      127
282
     0
 72
     0
 77
     0
171
     0
175
     0
179
     0
273
     0
  0
XRECORD
  5
279B
102
{ACAD_REACTORS
330
2799
102
}
330
2799
100
AcDbXrecord
280
     1
270
     1
271
     1
  0
XRECORD
  5
279A
102
{ACAD_REACTORS
330
2799
102
}
330
2799
100
AcDbXrecord
280
     1
270
     1
271
     1
  0
XRECORD
  5
279E
102
{ACAD_REACTORS
330
2799
102
}
330
2799
100
AcDbXrecord
280
     1
270
     1
271
     1
  0
XRECORD
  5
279D
102
{ACAD_REACTORS
330
2799
102
}
330
2799
100
AcDbXrecord
280
     1
270
     1
271
     1
  0
XRECORD
  5
279F
102
{ACAD_REACTORS
330
2799
102
}
330
2799
100
AcDbXrecord
280
     1
270
     1
271
     1
  0
XRECORD
  5
279C
102
{ACAD_REACTORS
330
2799
102
}
330
2799
100
AcDbXrecord
280
     1
270
     1
271
     1
  0
CELLSTYLEMAP
  5
2945
102
{ACAD_REACTORS
330
2944
102
}
330
2944
100
AcDbCellStyleMap
 90
        3
300
CELLSTYLE
  1
TABLEFORMAT_BEGIN
 90
        5
170
     1
 91
        0
 92
    32768
 62
   257
 93
        1
300
CONTENTFORMAT
  1
CONTENTFORMAT_BEGIN
 90
        0
 91
        0
 92
      512
 93
        0
300

 40
0.0
140
1.0
 94
        5
 62
     0
340
10
144
0.25
309
CONTENTFORMAT_END
171
     0
 94
        0
309
TABLEFORMAT_END
  1
CELLSTYLE_BEGIN
 90
        1
 91
        1
300
_TITLE
309
CELLSTYLE_END
300
CELLSTYLE
  1
TABLEFORMAT_BEGIN
 90
        5
170
     1
 91
        0
 92
        0
 62
   257
 93
        1
300
CONTENTFORMAT
  1
CONTENTFORMAT_BEGIN
 90
        0
 91
        0
 92
      512
 93
        0
300

 40
0.0
140
1.0
 94
        5
 62
     0
340
10
144
0.18
309
CONTENTFORMAT_END
171
     0
 94
        0
309
TABLEFORMAT_END
  1
CELLSTYLE_BEGIN
 90
        2
 91
        1
300
_HEADER
309
CELLSTYLE_END
300
CELLSTYLE
  1
TABLEFORMAT_BEGIN
 90
        5
170
     1
 91
        0
 92
        0
 62
   257
 93
        1
300
CONTENTFORMAT
  1
CONTENTFORMAT_BEGIN
 90
        0
 91
        0
 92
      512
 93
        0
300

 40
0.0
140
1.0
 94
        2
 62
     0
340
10
144
0.18
309
CONTENTFORMAT_END
171
     0
 94
        0
309
TABLEFORMAT_END
  1
CELLSTYLE_BEGIN
 90
        3
 91
        2
300
_DATA
309
CELLSTYLE_END
  0
XRECORD
  5
2973
102
{ACAD_REACTORS
330
2944
102
}
330
2944
100
AcDbXrecord
280
     1
102
ACAD_ROUNDTRIP_PRE2007_TABLESTYLE
 90
      512
 91
        0
  1

 92
      512
 93
        0
  2

 94
      512
 95
        0
  3

  0
XRECORD
  5
2958
102
{ACAD_REACTORS
330
2957
102
}
330
2957
100
AcDbXrecord
280
     1
102
RTVSPropertyOp0
 70
     1
102
RTVSPropertyOp1
 70
     1
102
RTVSPropertyOp2
 70
     1
102
RTVSPropertyOp3
 70
     1
102
RTVSPropertyOp4
 70
     1
102
RTVSPropertyOp5
 70
     1
102
RTVSPropertyOp6
 70
     1
102
RTVSPropertyOp7
 70
     1
102
RTVSPropertyOp8
 70
     1
102
RTVSPropertyOp9
 70
     1
102
RTVSPropertyOp10
 70
     1
102
RTVSPropertyOp11
 70
     1
102
RTVSPropertyOp12
 70
     1
102
RTVSPropertyOp13
 70
     1
102
RTVSPropertyOp14
 70
     1
102
RTVSPropertyOp15
 70
     1
102
RTVSPropertyOp16
 70
     1
102
RTVSPropertyOp17
 70
     1
102
RTVSPropertyOp18
 70
     1
102
RTVSPropertyOp19
 70
     1
102
RTVSPropertyOp20
 70
     1
102
RTVSPropertyOp21
 70
     1
102
RTVSPropertyOp22
 70
     1
102
RTVSPropertyOp23
 70
     1
102
RTVSPropertyOp24
 70
     1
102
RTVSPropertyOp25
 70
     1
102
RTVSPropertyOp26
 70
     1
102
RTVSPropertyOp27
 70
     1
  0
XRECORD
  5
295C
102
{ACAD_REACTORS
330
295B
102
}
330
295B
100
AcDbXrecord
280
     1
102
RTVSPropertyOp0
 70
     1
102
RTVSPropertyOp1
 70
     1
102
RTVSPropertyOp2
 70
     1
102
RTVSPropertyOp3
 70
     1
102
RTVSPropertyOp4
 70
     1
102
RTVSPropertyOp5
 70
     1
102
RTVSPropertyOp6
 70
     1
102
RTVSPropertyOp7
 70
     1
102
RTVSPropertyOp8
 70
     1
102
RTVSPropertyOp9
 70
     1
102
RTVSPropertyOp10
 70
     1
102
RTVSPropertyOp11
 70
     1
102
RTVSPropertyOp12
 70
     1
102
RTVSPropertyOp13
 70
     1
102
RTVSPropertyOp14
 70
     1
102
RTVSPropertyOp15
 70
     1
102
RTVSPropertyOp16
 70
     1
102
RTVSPropertyOp17
 70
     1
102
RTVSPropertyOp18
 70
     1
102
RTVSPropertyOp19
 70
     1
102
RTVSPropertyOp20
 70
     1
102
RTVSPropertyOp21
 70
     1
102
RTVSPropertyOp22
 70
     1
102
RTVSPropertyOp23
 70
     1
102
RTVSPropertyOp24
 70
     1
102
RTVSPropertyOp25
 70
     1
102
RTVSPropertyOp26
 70
     1
102
RTVSPropertyOp27
 70
     1
  0
XRECORD
  5
295A
102
{ACAD_REACTORS
330
2959
102
}
330
2959
100
AcDbXrecord
280
     1
102
RTVSPropertyOp0
 70
     1
102
RTVSPropertyOp1
 70
     1
102
RTVSPropertyOp2
 70
     1
102
RTVSPropertyOp3
 70
     1
102
RTVSPropertyOp4
 70
     1
102
RTVSPropertyOp5
 70
     1
102
RTVSPropertyOp6
 70
     1
102
RTVSPropertyOp7
 70
     1
102
RTVSPropertyOp8
 70
     1
102
RTVSPropertyOp9
 70
     1
102
RTVSPropertyOp10
 70
     1
102
RTVSPropertyOp11
 70
     1
102
RTVSPropertyOp12
 70
     1
102
RTVSPropertyOp13
 70
     1
102
RTVSPropertyOp14
 70
     1
102
RTVSPropertyOp15
 70
     1
102
RTVSPropertyOp16
 70
     1
102
RTVSPropertyOp17
 70
     1
102
RTVSPropertyOp18
 70
     1
102
RTVSPropertyOp19
 70
     1
102
RTVSPropertyOp20
 70
     1
102
RTVSPropertyOp21
 70
     1
102
RTVSPropertyOp22
 70
     1
102
RTVSPropertyOp23
 70
     1
102
RTVSPropertyOp24
 70
     1
102
RTVSPropertyOp25
 70
     1
102
RTVSPropertyOp26
 70
     1
102
RTVSPropertyOp27
 70
     1
  0
XRECORD
  5
2956
102
{ACAD_REACTORS
330
2955
102
}
330
2955
100
AcDbXrecord
280
     1
102
RTVSPropertyOp0
 70
     1
102
RTVSPropertyOp1
 70
     1
102
RTVSPropertyOp2
 70
     1
102
RTVSPropertyOp3
 70
     1
102
RTVSPropertyOp4
 70
     1
102
RTVSPropertyOp5
 70
     1
102
RTVSPropertyOp6
 70
     1
102
RTVSPropertyOp7
 70
     1
102
RTVSPropertyOp8
 70
     1
102
RTVSPropertyOp9
 70
     1
102
RTVSPropertyOp10
 70
     1
102
RTVSPropertyOp11
 70
     1
102
RTVSPropertyOp12
 70
     1
102
RTVSPropertyOp13
 70
     1
102
RTVSPropertyOp14
 70
     1
102
RTVSPropertyOp15
 70
     1
102
RTVSPropertyOp16
 70
     1
102
RTVSPropertyOp17
 70
     1
102
RTVSPropertyOp18
 70
     1
102
RTVSPropertyOp19
 70
     1
102
RTVSPropertyOp20
 70
     1
102
RTVSPropertyOp21
 70
     1
102
RTVSPropertyOp22
 70
     1
102
RTVSPropertyOp23
 70
     1
102
RTVSPropertyOp24
 70
     1
102
RTVSPropertyOp25
 70
     1
102
RTVSPropertyOp26
 70
     1
102
RTVSPropertyOp27
 70
     1
  0
XRECORD
  5
2964
102
{ACAD_REACTORS
330
2963
102
}
330
2963
100
AcDbXrecord
280
     1
102
RTVSPropertyOp0
 70
     1
102
RTVSPropertyOp1
 70
     1
102
RTVSPropertyOp2
 70
     1
102
RTVSPropertyOp3
 70
     1
102
RTVSPropertyOp4
 70
     1
102
RTVSPropertyOp5
 70
     1
102
RTVSPropertyOp6
 70
     1
102
RTVSPropertyOp7
 70
     1
102
RTVSPropertyOp8
 70
     1
102
RTVSPropertyOp9
 70
     1
102
RTVSPropertyOp10
 70
     1
102
RTVSPropertyOp11
 70
     1
102
RTVSPropertyOp12
 70
     1
102
RTVSPropertyOp13
 70
     1
102
RTVSPropertyOp14
 70
     1
102
RTVSPropertyOp15
 70
     1
102
RTVSPropertyOp16
 70
     1
102
RTVSPropertyOp17
 70
     1
102
RTVSPropertyOp18
 70
     1
102
RTVSPropertyOp19
 70
     1
102
RTVSPropertyOp20
 70
     1
102
RTVSPropertyOp21
 70
     1
102
RTVSPropertyOp22
 70
     1
102
RTVSPropertyOp23
 70
     1
102
RTVSPropertyOp24
 70
     1
102
RTVSPropertyOp25
 70
     1
102
RTVSPropertyOp26
 70
     1
102
RTVSPropertyOp27
 70
     1
  0
XRECORD
  5
296C
102
{ACAD_REACTORS
330
296B
102
}
330
296B
100
AcDbXrecord
280
     1
102
RTVSPropertyOp0
 70
     1
102
RTVSPropertyOp1
 70
     1
102
RTVSPropertyOp2
 70
     1
102
RTVSPropertyOp3
 70
     1
102
RTVSPropertyOp4
 70
     1
102
RTVSPropertyOp5
 70
     1
102
RTVSPropertyOp6
 70
     1
102
RTVSPropertyOp7
 70
     1
102
RTVSPropertyOp8
 70
     1
102
RTVSPropertyOp9
 70
     1
102
RTVSPropertyOp10
 70
     1
102
RTVSPropertyOp11
 70
     1
102
RTVSPropertyOp12
 70
     1
102
RTVSPropertyOp13
 70
     1
102
RTVSPropertyOp14
 70
     1
102
RTVSPropertyOp15
 70
     1
102
RTVSPropertyOp16
 70
     1
102
RTVSPropertyOp17
 70
     1
102
RTVSPropertyOp18
 70
     1
102
RTVSPropertyOp19
 70
     1
102
RTVSPropertyOp20
 70
     1
102
RTVSPropertyOp21
 70
     1
102
RTVSPropertyOp22
 70
     1
102
RTVSPropertyOp23
 70
     1
102
RTVSPropertyOp24
 70
     1
102
RTVSPropertyOp25
 70
     1
102
RTVSPropertyOp26
 70
     1
102
RTVSPropertyOp27
 70
     1
  0
XRECORD
  5
295E
102
{ACAD_REACTORS
330
295D
102
}
330
295D
100
AcDbXrecord
280
     1
102
RTVSPropertyOp0
 70
     1
102
RTVSPropertyOp1
 70
     1
102
RTVSPropertyOp2
 70
     1
102
RTVSPropertyOp3
 70
     1
102
RTVSPropertyOp4
 70
     1
102
RTVSPropertyOp5
 70
     1
102
RTVSPropertyOp6
 70
     1
102
RTVSPropertyOp7
 70
     1
102
RTVSPropertyOp8
 70
     1
102
RTVSPropertyOp9
 70
     1
102
RTVSPropertyOp10
 70
     1
102
RTVSPropertyOp11
 70
     1
102
RTVSPropertyOp12
 70
     1
102
RTVSPropertyOp13
 70
     1
102
RTVSPropertyOp14
 70
     1
102
RTVSPropertyOp15
 70
     1
102
RTVSPropertyOp16
 70
     1
102
RTVSPropertyOp17
 70
     1
102
RTVSPropertyOp18
 70
     1
102
RTVSPropertyOp19
 70
     1
102
RTVSPropertyOp20
 70
     1
102
RTVSPropertyOp21
 70
     1
102
RTVSPropertyOp22
 70
     1
102
RTVSPropertyOp23
 70
     1
102
RTVSPropertyOp24
 70
     1
102
RTVSPropertyOp25
 70
     1
102
RTVSPropertyOp26
 70
     1
102
RTVSPropertyOp27
 70
     1
  0
XRECORD
  5
2962
102
{ACAD_REACTORS
330
2961
102
}
330
2961
100
AcDbXrecord
280
     1
102
RTVSPropertyOp0
 70
     1
102
RTVSPropertyOp1
 70
     1
102
RTVSPropertyOp2
 70
     1
102
RTVSPropertyOp3
 70
     1
102
RTVSPropertyOp4
 70
     1
102
RTVSPropertyOp5
 70
     1
102
RTVSPropertyOp6
 70
     1
102
RTVSPropertyOp7
 70
     1
102
RTVSPropertyOp8
 70
     1
102
RTVSPropertyOp9
 70
     1
102
RTVSPropertyOp10
 70
     1
102
RTVSPropertyOp11
 70
     1
102
RTVSPropertyOp12
 70
     1
102
RTVSPropertyOp13
 70
     1
102
RTVSPropertyOp14
 70
     1
102
RTVSPropertyOp15
 70
     1
102
RTVSPropertyOp16
 70
     1
102
RTVSPropertyOp17
 70
     1
102
RTVSPropertyOp18
 70
     1
102
RTVSPropertyOp19
 70
     1
102
RTVSPropertyOp20
 70
     1
102
RTVSPropertyOp21
 70
     1
102
RTVSPropertyOp22
 70
     1
102
RTVSPropertyOp23
 70
     1
102
RTVSPropertyOp24
 70
     1
102
RTVSPropertyOp25
 70
     1
102
RTVSPropertyOp26
 70
     1
102
RTVSPropertyOp27
 70
     1
  0
XRECORD
  5
2972
102
{ACAD_REACTORS
330
2971
102
}
330
2971
100
AcDbXrecord
280
     1
102
RTVSPropertyOp0
 70
     0
102
RTVSPropertyOp1
 70
     0
102
RTVSPropertyOp2
 70
     0
102
RTVSPropertyOp3
 70
     0
102
RTVSPropertyOp4
 70
     0
102
RTVSPropertyOp5
 70
     0
102
RTVSPropertyOp6
 70
     0
102
RTVSPropertyOp7
 70
     0
102
RTVSPropertyOp8
 70
     0
102
RTVSPropertyOp9
 70
     0
102
RTVSPropertyOp10
 70
     0
102
RTVSPropertyOp11
 70
     0
102
RTVSPropertyOp12
 70
     0
102
RTVSPropertyOp13
 70
     0
102
RTVSPropertyOp14
 70
     2
102
RTVSPropertyOp15
 70
     0
102
RTVSPropertyOp16
 70
     0
102
RTVSPropertyOp17
 70
     0
102
RTVSPropertyOp18
 70
     0
102
RTVSPropertyOp19
 70
     0
102
RTVSPropertyOp20
 70
     0
102
RTVSPropertyOp21
 70
     0
102
RTVSPropertyOp22
 70
     0
102
RTVSPropertyOp23
 70
     0
102
RTVSPropertyOp24
 70
     0
102
RTVSPropertyOp25
 70
     0
102
RTVSPropertyOp26
 70
     0
102
RTVSPropertyOp27
 70
     0
  0
XRECORD
  5
296A
102
{ACAD_REACTORS
330
2969
102
}
330
2969
100
AcDbXrecord
280
     1
102
RTVSPropertyOp0
 70
     1
102
RTVSPropertyOp1
 70
     1
102
RTVSPropertyOp2
 70
     1
102
RTVSPropertyOp3
 70
     1
102
RTVSPropertyOp4
 70
     1
102
RTVSPropertyOp5
 70
     1
102
RTVSPropertyOp6
 70
     1
102
RTVSPropertyOp7
 70
     1
102
RTVSPropertyOp8
 70
     1
102
RTVSPropertyOp9
 70
     1
102
RTVSPropertyOp10
 70
     1
102
RTVSPropertyOp11
 70
     1
102
RTVSPropertyOp12
 70
     1
102
RTVSPropertyOp13
 70
     1
102
RTVSPropertyOp14
 70
     1
102
RTVSPropertyOp15
 70
     1
102
RTVSPropertyOp16
 70
     1
102
RTVSPropertyOp17
 70
     1
102
RTVSPropertyOp18
 70
     1
102
RTVSPropertyOp19
 70
     1
102
RTVSPropertyOp20
 70
     1
102
RTVSPropertyOp21
 70
     1
102
RTVSPropertyOp22
 70
     1
102
RTVSPropertyOp23
 70
     1
102
RTVSPropertyOp24
 70
     1
102
RTVSPropertyOp25
 70
     1
102
RTVSPropertyOp26
 70
     1
102
RTVSPropertyOp27
 70
     1
  0
XRECORD
  5
294E
102
{ACAD_REACTORS
330
294D
102
}
330
294D
100
AcDbXrecord
280
     1
102
RTVSPropertyOp0
 70
     1
102
RTVSPropertyOp1
 70
     1
102
RTVSPropertyOp2
 70
     1
102
RTVSPropertyOp3
 70
     1
102
RTVSPropertyOp4
 70
     1
102
RTVSPropertyOp5
 70
     1
102
RTVSPropertyOp6
 70
     1
102
RTVSPropertyOp7
 70
     1
102
RTVSPropertyOp8
 70
     1
102
RTVSPropertyOp9
 70
     1
102
RTVSPropertyOp10
 70
     1
102
RTVSPropertyOp11
 70
     1
102
RTVSPropertyOp12
 70
     1
102
RTVSPropertyOp13
 70
     1
102
RTVSPropertyOp14
 70
     1
102
RTVSPropertyOp15
 70
     1
102
RTVSPropertyOp16
 70
     1
102
RTVSPropertyOp17
 70
     1
102
RTVSPropertyOp18
 70
     1
102
RTVSPropertyOp19
 70
     1
102
RTVSPropertyOp20
 70
     1
102
RTVSPropertyOp21
 70
     1
102
RTVSPropertyOp22
 70
     1
102
RTVSPropertyOp23
 70
     1
102
RTVSPropertyOp24
 70
     1
102
RTVSPropertyOp25
 70
     1
102
RTVSPropertyOp26
 70
     1
102
RTVSPropertyOp27
 70
     1
  0
XRECORD
  5
2950
102
{ACAD_REACTORS
330
294F
102
}
330
294F
100
AcDbXrecord
280
     1
102
RTVSPropertyOp0
 70
     1
102
RTVSPropertyOp1
 70
     1
102
RTVSPropertyOp2
 70
     1
102
RTVSPropertyOp3
 70
     1
102
RTVSPropertyOp4
 70
     1
102
RTVSPropertyOp5
 70
     1
102
RTVSPropertyOp6
 70
     1
102
RTVSPropertyOp7
 70
     1
102
RTVSPropertyOp8
 70
     1
102
RTVSPropertyOp9
 70
     1
102
RTVSPropertyOp10
 70
     1
102
RTVSPropertyOp11
 70
     1
102
RTVSPropertyOp12
 70
     1
102
RTVSPropertyOp13
 70
     1
102
RTVSPropertyOp14
 70
     1
102
RTVSPropertyOp15
 70
     1
102
RTVSPropertyOp16
 70
     1
102
RTVSPropertyOp17
 70
     1
102
RTVSPropertyOp18
 70
     1
102
RTVSPropertyOp19
 70
     1
102
RTVSPropertyOp20
 70
     1
102
RTVSPropertyOp21
 70
     1
102
RTVSPropertyOp22
 70
     1
102
RTVSPropertyOp23
 70
     1
102
RTVSPropertyOp24
 70
     1
102
RTVSPropertyOp25
 70
     1
102
RTVSPropertyOp26
 70
     1
102
RTVSPropertyOp27
 70
     1
  0
XRECORD
  5
2952
102
{ACAD_REACTORS
330
2951
102
}
330
2951
100
AcDbXrecord
280
     1
102
RTVSPropertyOp0
 70
     1
102
RTVSPropertyOp1
 70
     1
102
RTVSPropertyOp2
 70
     1
102
RTVSPropertyOp3
 70
     1
102
RTVSPropertyOp4
 70
     1
102
RTVSPropertyOp5
 70
     1
102
RTVSPropertyOp6
 70
     1
102
RTVSPropertyOp7
 70
     1
102
RTVSPropertyOp8
 70
     1
102
RTVSPropertyOp9
 70
     1
102
RTVSPropertyOp10
 70
     1
102
RTVSPropertyOp11
 70
     1
102
RTVSPropertyOp12
 70
     1
102
RTVSPropertyOp13
 70
     1
102
RTVSPropertyOp14
 70
     1
102
RTVSPropertyOp15
 70
     1
102
RTVSPropertyOp16
 70
     1
102
RTVSPropertyOp17
 70
     1
102
RTVSPropertyOp18
 70
     1
102
RTVSPropertyOp19
 70
     1
102
RTVSPropertyOp20
 70
     1
102
RTVSPropertyOp21
 70
     1
102
RTVSPropertyOp22
 70
     1
102
RTVSPropertyOp23
 70
     1
102
RTVSPropertyOp24
 70
     1
102
RTVSPropertyOp25
 70
     1
102
RTVSPropertyOp26
 70
     1
102
RTVSPropertyOp27
 70
     1
  0
XRECORD
  5
2954
102
{ACAD_REACTORS
330
2953
102
}
330
2953
100
AcDbXrecord
280
     1
102
RTVSPropertyOp0
 70
     1
102
RTVSPropertyOp1
 70
     1
102
RTVSPropertyOp2
 70
     1
102
RTVSPropertyOp3
 70
     1
102
RTVSPropertyOp4
 70
     1
102
RTVSPropertyOp5
 70
     1
102
RTVSPropertyOp6
 70
     1
102
RTVSPropertyOp7
 70
     1
102
RTVSPropertyOp8
 70
     1
102
RTVSPropertyOp9
 70
     1
102
RTVSPropertyOp10
 70
     1
102
RTVSPropertyOp11
 70
     1
102
RTVSPropertyOp12
 70
     1
102
RTVSPropertyOp13
 70
     1
102
RTVSPropertyOp14
 70
     1
102
RTVSPropertyOp15
 70
     1
102
RTVSPropertyOp16
 70
     1
102
RTVSPropertyOp17
 70
     1
102
RTVSPropertyOp18
 70
     1
102
RTVSPropertyOp19
 70
     1
102
RTVSPropertyOp20
 70
     1
102
RTVSPropertyOp21
 70
     1
102
RTVSPropertyOp22
 70
     1
102
RTVSPropertyOp23
 70
     1
102
RTVSPropertyOp24
 70
     1
102
RTVSPropertyOp25
 70
     1
102
RTVSPropertyOp26
 70
     1
102
RTVSPropertyOp27
 70
     1
  0
XRECORD
  5
296E
102
{ACAD_REACTORS
330
296D
102
}
330
296D
100
AcDbXrecord
280
     1
102
RTVSPropertyOp0
 70
     0
102
RTVSPropertyOp1
 70
     0
102
RTVSPropertyOp2
 70
     0
102
RTVSPropertyOp3
 70
     0
102
RTVSPropertyOp4
 70
     0
102
RTVSPropertyOp5
 70
     0
102
RTVSPropertyOp6
 70
     0
102
RTVSPropertyOp7
 70
     0
102
RTVSPropertyOp8
 70
     0
102
RTVSPropertyOp9
 70
     0
102
RTVSPropertyOp10
 70
     0
102
RTVSPropertyOp11
 70
     0
102
RTVSPropertyOp12
 70
     0
102
RTVSPropertyOp13
 70
     0
102
RTVSPropertyOp14
 70
     2
102
RTVSPropertyOp15
 70
     0
102
RTVSPropertyOp16
 70
     0
102
RTVSPropertyOp17
 70
     0
102
RTVSPropertyOp18
 70
     0
102
RTVSPropertyOp19
 70
     0
102
RTVSPropertyOp20
 70
     0
102
RTVSPropertyOp21
 70
     0
102
RTVSPropertyOp22
 70
     0
102
RTVSPropertyOp23
 70
     0
102
RTVSPropertyOp24
 70
     0
102
RTVSPropertyOp25
 70
     0
102
RTVSPropertyOp26
 70
     0
102
RTVSPropertyOp27
 70
     0
  0
XRECORD
  5
2968
102
{ACAD_REACTORS
330
2967
102
}
330
2967
100
AcDbXrecord
280
     1
102
RTVSPropertyOp0
 70
     1
102
RTVSPropertyOp1
 70
     1
102
RTVSPropertyOp2
 70
     1
102
RTVSPropertyOp3
 70
     1
102
RTVSPropertyOp4
 70
     1
102
RTVSPropertyOp5
 70
     1
102
RTVSPropertyOp6
 70
     1
102
RTVSPropertyOp7
 70
     1
102
RTVSPropertyOp8
 70
     1
102
RTVSPropertyOp9
 70
     1
102
RTVSPropertyOp10
 70
     1
102
RTVSPropertyOp11
 70
     1
102
RTVSPropertyOp12
 70
     1
102
RTVSPropertyOp13
 70
     1
102
RTVSPropertyOp14
 70
     1
102
RTVSPropertyOp15
 70
     1
102
RTVSPropertyOp16
 70
     1
102
RTVSPropertyOp17
 70
     1
102
RTVSPropertyOp18
 70
     1
102
RTVSPropertyOp19
 70
     1
102
RTVSPropertyOp20
 70
     1
102
RTVSPropertyOp21
 70
     1
102
RTVSPropertyOp22
 70
     1
102
RTVSPropertyOp23
 70
     1
102
RTVSPropertyOp24
 70
     1
102
RTVSPropertyOp25
 70
     1
102
RTVSPropertyOp26
 70
     1
102
RTVSPropertyOp27
 70
     1
  0
XRECORD
  5
2970
102
{ACAD_REACTORS
330
296F
102
}
330
296F
100
AcDbXrecord
280
     1
102
RTVSPropertyOp0
 70
     0
102
RTVSPropertyOp1
 70
     0
102
RTVSPropertyOp2
 70
     0
102
RTVSPropertyOp3
 70
     0
102
RTVSPropertyOp4
 70
     0
102
RTVSPropertyOp5
 70
     0
102
RTVSPropertyOp6
 70
     0
102
RTVSPropertyOp7
 70
     0
102
RTVSPropertyOp8
 70
     0
102
RTVSPropertyOp9
 70
     0
102
RTVSPropertyOp10
 70
     0
102
RTVSPropertyOp11
 70
     0
102
RTVSPropertyOp12
 70
     0
102
RTVSPropertyOp13
 70
     0
102
RTVSPropertyOp14
 70
     2
102
RTVSPropertyOp15
 70
     0
102
RTVSPropertyOp16
 70
     0
102
RTVSPropertyOp17
 70
     0
102
RTVSPropertyOp18
 70
     0
102
RTVSPropertyOp19
 70
     0
102
RTVSPropertyOp20
 70
     0
102
RTVSPropertyOp21
 70
     0
102
RTVSPropertyOp22
 70
     0
102
RTVSPropertyOp23
 70
     0
102
RTVSPropertyOp24
 70
     0
102
RTVSPropertyOp25
 70
     0
102
RTVSPropertyOp26
 70
     0
102
RTVSPropertyOp27
 70
     0
  0
XRECORD
  5
2960
102
{ACAD_REACTORS
330
295F
102
}
330
295F
100
AcDbXrecord
280
     1
102
RTVSPropertyOp0
 70
     1
102
RTVSPropertyOp1
 70
     1
102
RTVSPropertyOp2
 70
     1
102
RTVSPropertyOp3
 70
     1
102
RTVSPropertyOp4
 70
     1
102
RTVSPropertyOp5
 70
     1
102
RTVSPropertyOp6
 70
     1
102
RTVSPropertyOp7
 70
     1
102
RTVSPropertyOp8
 70
     1
102
RTVSPropertyOp9
 70
     1
102
RTVSPropertyOp10
 70
     1
102
RTVSPropertyOp11
 70
     1
102
RTVSPropertyOp12
 70
     1
102
RTVSPropertyOp13
 70
     1
102
RTVSPropertyOp14
 70
     1
102
RTVSPropertyOp15
 70
     1
102
RTVSPropertyOp16
 70
     1
102
RTVSPropertyOp17
 70
     1
102
RTVSPropertyOp18
 70
     1
102
RTVSPropertyOp19
 70
     1
102
RTVSPropertyOp20
 70
     1
102
RTVSPropertyOp21
 70
     1
102
RTVSPropertyOp22
 70
     1
102
RTVSPropertyOp23
 70
     1
102
RTVSPropertyOp24
 70
     1
102
RTVSPropertyOp25
 70
     1
102
RTVSPropertyOp26
 70
     1
102
RTVSPropertyOp27
 70
     1
  0
XRECORD
  5
2966
102
{ACAD_REACTORS
330
2965
102
}
330
2965
100
AcDbXrecord
280
     1
102
RTVSPropertyOp0
 70
     1
102
RTVSPropertyOp1
 70
     1
102
RTVSPropertyOp2
 70
     1
102
RTVSPropertyOp3
 70
     1
102
RTVSPropertyOp4
 70
     1
102
RTVSPropertyOp5
 70
     1
102
RTVSPropertyOp6
 70
     1
102
RTVSPropertyOp7
 70
     1
102
RTVSPropertyOp8
 70
     1
102
RTVSPropertyOp9
 70
     1
102
RTVSPropertyOp10
 70
     1
102
RTVSPropertyOp11
 70
     1
102
RTVSPropertyOp12
 70
     1
102
RTVSPropertyOp13
 70
     1
102
RTVSPropertyOp14
 70
     1
102
RTVSPropertyOp15
 70
     1
102
RTVSPropertyOp16
 70
     1
102
RTVSPropertyOp17
 70
     1
102
RTVSPropertyOp18
 70
     1
102
RTVSPropertyOp19
 70
     1
102
RTVSPropertyOp20
 70
     1
102
RTVSPropertyOp21
 70
     1
102
RTVSPropertyOp22
 70
     1
102
RTVSPropertyOp23
 70
     1
102
RTVSPropertyOp24
 70
     1
102
RTVSPropertyOp25
 70
     1
102
RTVSPropertyOp26
 70
     1
102
RTVSPropertyOp27
 70
     1
  0
DICTIONARY
  5
28BF
102
{ACAD_REACTORS
330
28BE
102
}
330
28BE
100
AcDbDictionary
280
     1
281
     1
  3
PH_GRPMEMBERS
360
28C0
  0
PH_GROUP
  5
28C1
102
{ACAD_REACTORS
330
28BE
102
}
330
28BE
  0
PH_GROUP
  5
28C0
102
{ACAD_REACTORS
330
28BF
102
}
330
28BF
  0
ENDSEC
  0
EOF
