ISO-10303-21;
HEADER;
FILE_DESCRIPTION (( 'STEP AP214' ),
    '1' );
FILE_NAME ('07700091.STEP',
    '2008-05-28T05:50:21',
    ( 'baramundi Management Suite Install User' ),
    ( 'ROSE Systemtechnik GmbH' ),
    'SwSTEP 2.0',
    'SolidWorks 2008',
    '' );
FILE_SCHEMA (( 'AUTOMOTIVE_DESIGN' ));
ENDSEC;

DATA;
#1 = APPLICATION_CONTEXT ( 'automotive_design' ) ;
#2 = APPLICATION_PROTOCOL_DEFINITION ( 'draft international standard', 'automotive_design', 1998, #3 ) ;
#3 = APPLICATION_CONTEXT ( 'automotive_design' ) ;
#4 = APPLICATION_PROTOCOL_DEFINITION ( 'draft international standard', 'automotive_design', 1998, #1 ) ;
#5 = PRODUCT_CONTEXT ( 'NONE', #3, 'mechanical' ) ;
#6 = CARTESIAN_POINT ( 'NONE',  ( -154.2500000000000000, -22.49999999999998900, 2.000000000000000000 ) ) ;
#7 = PLANE ( 'NONE',  #85 ) ;
#8 = FACE_OUTER_BOUND ( 'NONE', #100, .T. ) ;
#9 = DIRECTION ( 'NONE',  ( -0.0000000000000000000, -0.0000000000000000000, -1.000000000000000000 ) ) ;
#10 = VECTOR ( 'NONE', #9, 1000.000000000000000 ) ;
#11 = CARTESIAN_POINT ( 'NONE',  ( -154.2500000000000000, 22.50000000000001100, 2.000000000000000000 ) ) ;
#12 = LINE ( 'NONE', #11, #10 ) ;
#13 = DIRECTION ( 'NONE',  ( -0.0000000000000000000, -0.0000000000000000000, -1.000000000000000000 ) ) ;
#14 = VECTOR ( 'NONE', #13, 1000.000000000000000 ) ;
#15 = CARTESIAN_POINT ( 'NONE',  ( 154.2500000000000000, 22.50000000000001100, 2.000000000000000000 ) ) ;
#16 = LINE ( 'NONE', #15, #14 ) ;
#17 = CARTESIAN_POINT ( 'NONE',  ( 154.2500000000000000, 22.50000000000001100, 2.000000000000000000 ) ) ;
#18 = DIRECTION ( 'NONE',  ( -0.0000000000000000000, 1.000000000000000000, -0.0000000000000000000 ) ) ;
#19 = VECTOR ( 'NONE', #18, 1000.000000000000000 ) ;
#20 = CARTESIAN_POINT ( 'NONE',  ( 154.2500000000000000, 22.50000000000001100, 2.000000000000000000 ) ) ;
#21 = LINE ( 'NONE', #20, #19 ) ;
#22 = DIRECTION ( 'NONE',  ( -1.000000000000000000, -0.0000000000000000000, -0.0000000000000000000 ) ) ;
#23 = DIRECTION ( 'NONE',  ( 1.000000000000000000, 0.0000000000000000000, 0.0000000000000000000 ) ) ;
#24 = DIRECTION ( 'NONE',  ( -0.0000000000000000000, 0.0000000000000000000, 1.000000000000000000 ) ) ;
#25 = CARTESIAN_POINT ( 'NONE',  ( -154.2500000000000000, -22.49999999999998900, 2.000000000000000000 ) ) ;
#26 = AXIS2_PLACEMENT_3D ( 'NONE', #25, #24, #23 ) ;
#27 = LINE ( 'NONE', #115, #114 ) ;
#28 = CARTESIAN_POINT ( 'NONE',  ( 154.2500000000000000, 22.50000000000001100, 0.0000000000000000000 ) ) ;
#29 = PLANE ( 'NONE',  #26 ) ;
#30 = FACE_OUTER_BOUND ( 'NONE', #35, .T. ) ;
#31 = APPLICATION_PROTOCOL_DEFINITION ( 'draft international standard', 'automotive_design', 1998, #32 ) ;
#32 = APPLICATION_CONTEXT ( 'automotive_design' ) ;
#33 = ORIENTED_EDGE ( 'NONE', *, *, #57, .T. ) ;
#34 = ADVANCED_FACE ( 'NONE', ( #30 ), #29, .T. ) ;
#35 = EDGE_LOOP ( 'NONE', ( #51, #52, #38, #39 ) ) ;
#36 = VERTEX_POINT ( 'NONE', #28 ) ;
#37 = EDGE_CURVE ( 'NONE', #103, #36, #27, .T. ) ;
#38 = ORIENTED_EDGE ( 'NONE', *, *, #53, .T. ) ;
#39 = ORIENTED_EDGE ( 'NONE', *, *, #90, .T. ) ;
#40 = ADVANCED_FACE ( 'NONE', ( #112 ), #111, .F. ) ;
#41 = EDGE_LOOP ( 'NONE', ( #42, #43, #46, #47 ) ) ;
#42 = ORIENTED_EDGE ( 'NONE', *, *, #66, .F. ) ;
#43 = ORIENTED_EDGE ( 'NONE', *, *, #50, .F. ) ;
#44 = ORIENTED_EDGE ( 'NONE', *, *, #57, .F. ) ;
#45 = ORIENTED_EDGE ( 'NONE', *, *, #50, .T. ) ;
#46 = ORIENTED_EDGE ( 'NONE', *, *, #37, .F. ) ;
#47 = ORIENTED_EDGE ( 'NONE', *, *, #102, .F. ) ;
#48 = CLOSED_SHELL ( 'NONE', ( #73, #59, #94, #87, #34, #40 ) ) ;
#49 = EDGE_LOOP ( 'NONE', ( #45, #56, #89, #33 ) ) ;
#50 = EDGE_CURVE ( 'NONE', #36, #67, #106, .T. ) ;
#51 = ORIENTED_EDGE ( 'NONE', *, *, #64, .T. ) ;
#52 = ORIENTED_EDGE ( 'NONE', *, *, #91, .T. ) ;
#53 = EDGE_CURVE ( 'NONE', #98, #55, #21, .T. ) ;
#54 = ORIENTED_EDGE ( 'NONE', *, *, #53, .F. ) ;
#55 = VERTEX_POINT ( 'NONE', #17 ) ;
#56 = ORIENTED_EDGE ( 'NONE', *, *, #58, .F. ) ;
#57 = EDGE_CURVE ( 'NONE', #55, #36, #16, .T. ) ;
#58 = EDGE_CURVE ( 'NONE', #70, #67, #12, .T. ) ;
#59 = ADVANCED_FACE ( 'NONE', ( #8 ), #7, .F. ) ;
#60 = ORIENTED_EDGE ( 'NONE', *, *, #58, .T. ) ;
#61 = ORIENTED_EDGE ( 'NONE', *, *, #65, .F. ) ;
#62 = ORIENTED_EDGE ( 'NONE', *, *, #64, .F. ) ;
#63 = VERTEX_POINT ( 'NONE', #86 ) ;
#64 = EDGE_CURVE ( 'NONE', #70, #63, #82, .T. ) ;
#65 = EDGE_CURVE ( 'NONE', #63, #68, #78, .T. ) ;
#66 = EDGE_CURVE ( 'NONE', #67, #68, #218, .T. ) ;
#67 = VERTEX_POINT ( 'NONE', #213 ) ;
#68 = VERTEX_POINT ( 'NONE', #216 ) ;
#69 = ORIENTED_EDGE ( 'NONE', *, *, #66, .T. ) ;
#70 = VERTEX_POINT ( 'NONE', #183 ) ;
#71 = EDGE_LOOP ( 'NONE', ( #69, #61, #62, #60 ) ) ;
#72 = MANIFOLD_SOLID_BREP ( 'NONE', #48 ) ;
#73 = ADVANCED_FACE ( 'NONE', ( #157 ), #156, .F. ) ;
#74 = PRODUCT ( '95437_Standard', '95437_Standard', '', ( #5 ) ) ;
#75 = DIRECTION ( 'NONE',  ( -0.0000000000000000000, -0.0000000000000000000, -1.000000000000000000 ) ) ;
#76 = VECTOR ( 'NONE', #75, 1000.000000000000000 ) ;
#77 = CARTESIAN_POINT ( 'NONE',  ( -154.2500000000000000, -22.49999999999998900, 2.000000000000000000 ) ) ;
#78 = LINE ( 'NONE', #77, #76 ) ;
#79 = DIRECTION ( 'NONE',  ( 0.0000000000000000000, -1.000000000000000000, 0.0000000000000000000 ) ) ;
#80 = VECTOR ( 'NONE', #79, 1000.000000000000000 ) ;
#81 = CARTESIAN_POINT ( 'NONE',  ( -154.2500000000000000, 22.50000000000001100, 2.000000000000000000 ) ) ;
#82 = LINE ( 'NONE', #81, #80 ) ;
#83 = DIRECTION ( 'NONE',  ( 0.0000000000000000000, -0.0000000000000000000, 1.000000000000000000 ) ) ;
#84 = DIRECTION ( 'NONE',  ( 0.0000000000000000000, 1.000000000000000000, 0.0000000000000000000 ) ) ;
#85 = AXIS2_PLACEMENT_3D ( 'NONE', #6, #84, #83 ) ;
#86 = CARTESIAN_POINT ( 'NONE',  ( -154.2500000000000000, -22.49999999999998900, 2.000000000000000000 ) ) ;
#87 = ADVANCED_FACE ( 'NONE', ( #150 ), #155, .F. ) ;
#88 = ORIENTED_EDGE ( 'NONE', *, *, #99, .T. ) ;
#89 = ORIENTED_EDGE ( 'NONE', *, *, #90, .F. ) ;
#90 = EDGE_CURVE ( 'NONE', #55, #70, #148, .T. ) ;
#91 = EDGE_CURVE ( 'NONE', #63, #98, #205, .T. ) ;
#92 = ORIENTED_EDGE ( 'NONE', *, *, #91, .F. ) ;
#93 = ORIENTED_EDGE ( 'NONE', *, *, #65, .T. ) ;
#94 = ADVANCED_FACE ( 'NONE', ( #201 ), #200, .F. ) ;
#95 = ORIENTED_EDGE ( 'NONE', *, *, #37, .T. ) ;
#96 = EDGE_LOOP ( 'NONE', ( #95, #44, #54, #88 ) ) ;
#97 = ORIENTED_EDGE ( 'NONE', *, *, #99, .F. ) ;
#98 = VERTEX_POINT ( 'NONE', #195 ) ;
#99 = EDGE_CURVE ( 'NONE', #98, #103, #194, .T. ) ;
#100 = EDGE_LOOP ( 'NONE', ( #101, #97, #92, #93 ) ) ;
#101 = ORIENTED_EDGE ( 'NONE', *, *, #102, .T. ) ;
#102 = EDGE_CURVE ( 'NONE', #68, #103, #190, .T. ) ;
#103 = VERTEX_POINT ( 'NONE', #186 ) ;
#104 = VECTOR ( 'NONE', #22, 1000.000000000000000 ) ;
#105 = CARTESIAN_POINT ( 'NONE',  ( -154.2500000000000000, 22.50000000000001100, 0.0000000000000000000 ) ) ;
#106 = LINE ( 'NONE', #105, #104 ) ;
#107 = DIRECTION ( 'NONE',  ( 1.000000000000000000, 0.0000000000000000000, 0.0000000000000000000 ) ) ;
#108 = DIRECTION ( 'NONE',  ( -0.0000000000000000000, 0.0000000000000000000, 1.000000000000000000 ) ) ;
#109 = AXIS2_PLACEMENT_3D ( 'NONE', #110, #108, #107 ) ;
#110 = CARTESIAN_POINT ( 'NONE',  ( -154.2500000000000000, -22.49999999999998900, 0.0000000000000000000 ) ) ;
#111 = PLANE ( 'NONE',  #109 ) ;
#112 = FACE_OUTER_BOUND ( 'NONE', #41, .T. ) ;
#113 = DIRECTION ( 'NONE',  ( -0.0000000000000000000, 1.000000000000000000, -0.0000000000000000000 ) ) ;
#114 = VECTOR ( 'NONE', #113, 1000.000000000000000 ) ;
#115 = CARTESIAN_POINT ( 'NONE',  ( 154.2500000000000000, 22.50000000000001100, 0.0000000000000000000 ) ) ;
#116 =( NAMED_UNIT ( * ) SI_UNIT ( $, .STERADIAN. ) SOLID_ANGLE_UNIT ( ) );
#117 =( NAMED_UNIT ( * ) PLANE_ANGLE_UNIT ( ) SI_UNIT ( $, .RADIAN. ) );
#118 = PRODUCT_DEFINITION_SHAPE ( 'NONE', 'NONE',  #121 ) ;
#119 = PRODUCT_RELATED_PRODUCT_CATEGORY ( 'part', '', ( #74 ) ) ;
#120 = PRODUCT_DEFINITION_FORMATION_WITH_SPECIFIED_SOURCE ( 'ANY', '', #74, .NOT_KNOWN. ) ;
#121 = PRODUCT_DEFINITION ( 'UNKNOWN', '', #120, #122 ) ;
#122 = PRODUCT_DEFINITION_CONTEXT ( 'detailed design', #32, 'design' ) ;
#123 = ITEM_DEFINED_TRANSFORMATION ( 'NONE', 'NONE', #133,  #172 ) ;
#124 = AXIS2_PLACEMENT_3D ( 'NONE', #184, #166, #185 ) ;
#125 =( GEOMETRIC_REPRESENTATION_CONTEXT ( 3 ) GLOBAL_UNCERTAINTY_ASSIGNED_CONTEXT ( ( #126 ) ) GLOBAL_UNIT_ASSIGNED_CONTEXT ( ( #129, #128, #127 ) ) REPRESENTATION_CONTEXT ( 'NONE', 'WORKASPACE' ) );
#126 = UNCERTAINTY_MEASURE_WITH_UNIT (LENGTH_MEASURE( 1.000000000000000100E-005 ), #129, 'distance_accuracy_value', 'NONE');
#127 =( NAMED_UNIT ( * ) SI_UNIT ( $, .STERADIAN. ) SOLID_ANGLE_UNIT ( ) );
#128 =( NAMED_UNIT ( * ) PLANE_ANGLE_UNIT ( ) SI_UNIT ( $, .RADIAN. ) );
#129 =( LENGTH_UNIT ( ) NAMED_UNIT ( * ) SI_UNIT ( .MILLI., .METRE. ) );
#130 = DIRECTION ( 'NONE',  ( 1.000000000000000000, 0.0000000000000000000, 0.0000000000000000000 ) ) ;
#131 = DIRECTION ( 'NONE',  ( 0.0000000000000000000, 0.0000000000000000000, 1.000000000000000000 ) ) ;
#132 = CARTESIAN_POINT ( 'NONE',  ( 0.0000000000000000000, 0.0000000000000000000, 0.0000000000000000000 ) ) ;
#133 = AXIS2_PLACEMENT_3D ( 'NONE', #132, #131, #130 ) ;
#134 = DIRECTION ( 'NONE',  ( 1.000000000000000000, 0.0000000000000000000, 0.0000000000000000000 ) ) ;
#135 =( GEOMETRIC_REPRESENTATION_CONTEXT ( 3 ) GLOBAL_UNCERTAINTY_ASSIGNED_CONTEXT ( ( #136 ) ) GLOBAL_UNIT_ASSIGNED_CONTEXT ( ( #175, #117, #116 ) ) REPRESENTATION_CONTEXT ( 'NONE', 'WORKASPACE' ) );
#136 = UNCERTAINTY_MEASURE_WITH_UNIT (LENGTH_MEASURE( 1.000000000000000100E-005 ), #175, 'distance_accuracy_value', 'NONE');
#137 = UNCERTAINTY_MEASURE_WITH_UNIT (LENGTH_MEASURE( 1.000000000000000100E-005 ), #140, 'distance_accuracy_value', 'NONE');
#138 =( NAMED_UNIT ( * ) SI_UNIT ( $, .STERADIAN. ) SOLID_ANGLE_UNIT ( ) );
#139 =( NAMED_UNIT ( * ) PLANE_ANGLE_UNIT ( ) SI_UNIT ( $, .RADIAN. ) );
#140 =( LENGTH_UNIT ( ) NAMED_UNIT ( * ) SI_UNIT ( .MILLI., .METRE. ) );
#141 = DIRECTION ( 'NONE',  ( 0.0000000000000000000, -1.000000000000000000, 0.0000000000000000000 ) ) ;
#142 = DIRECTION ( 'NONE',  ( -1.000000000000000000, -0.0000000000000000000, -0.0000000000000000000 ) ) ;
#143 = VECTOR ( 'NONE', #142, 1000.000000000000000 ) ;
#144 = CARTESIAN_POINT ( 'NONE',  ( -154.2500000000000000, 22.50000000000001100, 2.000000000000000000 ) ) ;
#145 = DIRECTION ( 'NONE',  ( 0.0000000000000000000, -0.0000000000000000000, -1.000000000000000000 ) ) ;
#146 = DIRECTION ( 'NONE',  ( 0.0000000000000000000, -1.000000000000000000, 0.0000000000000000000 ) ) ;
#147 = CARTESIAN_POINT ( 'NONE',  ( -154.2500000000000000, 22.50000000000001100, 2.000000000000000000 ) ) ;
#148 = LINE ( 'NONE', #144, #143 ) ;
#149 = AXIS2_PLACEMENT_3D ( 'NONE', #147, #146, #145 ) ;
#150 = FACE_OUTER_BOUND ( 'NONE', #49, .T. ) ;
#151 = DIRECTION ( 'NONE',  ( -0.0000000000000000000, 0.0000000000000000000, -1.000000000000000000 ) ) ;
#152 = DIRECTION ( 'NONE',  ( 1.000000000000000000, 0.0000000000000000000, -0.0000000000000000000 ) ) ;
#153 = CARTESIAN_POINT ( 'NONE',  ( -154.2500000000000000, 22.50000000000001100, 2.000000000000000000 ) ) ;
#154 = AXIS2_PLACEMENT_3D ( 'NONE', #153, #152, #151 ) ;
#155 = PLANE ( 'NONE',  #149 ) ;
#156 = PLANE ( 'NONE',  #154 ) ;
#157 = FACE_OUTER_BOUND ( 'NONE', #71, .T. ) ;
#158 = CONTEXT_DEPENDENT_SHAPE_REPRESENTATION ( #211, #159 ) ;
#159 = PRODUCT_DEFINITION_SHAPE ( 'NONE', 'NONE',  #210 ) ;
#160 = FILL_AREA_STYLE ('',( #214 ) ) ;
#161 = COLOUR_RGB ( '',0.7529411764705882200, 0.7529411764705882200, 0.7529411764705882200 ) ;
#162 = DIRECTION ( 'NONE',  ( 0.0000000000000000000, 0.0000000000000000000, 1.000000000000000000 ) ) ;
#163 = CARTESIAN_POINT ( 'NONE',  ( 0.0000000000000000000, 0.0000000000000000000, 0.0000000000000000000 ) ) ;
#164 = AXIS2_PLACEMENT_3D ( 'NONE', #163, #162, #134 ) ;
#165 = SHAPE_REPRESENTATION ( '07700091', ( #124, #133 ), #125 ) ;
#166 = DIRECTION ( 'NONE',  ( 0.0000000000000000000, 0.0000000000000000000, 1.000000000000000000 ) ) ;
#167 = SHAPE_REPRESENTATION_RELATIONSHIP ( 'NONE' , 'NONE' ,  #168, #173 ) ;
#168 = SHAPE_REPRESENTATION ( '95437_Standard', ( #172 ), #174 ) ;
#169 = DIRECTION ( 'NONE',  ( 1.000000000000000000, 0.0000000000000000000, 0.0000000000000000000 ) ) ;
#170 = DIRECTION ( 'NONE',  ( 0.0000000000000000000, 0.0000000000000000000, 1.000000000000000000 ) ) ;
#171 = CARTESIAN_POINT ( 'NONE',  ( 0.0000000000000000000, 0.0000000000000000000, 0.0000000000000000000 ) ) ;
#172 = AXIS2_PLACEMENT_3D ( 'NONE', #171, #170, #169 ) ;
#173 = ADVANCED_BREP_SHAPE_REPRESENTATION ( '', ( #72, #172 ), #174 ) ;
#174 =( GEOMETRIC_REPRESENTATION_CONTEXT ( 3 ) GLOBAL_UNCERTAINTY_ASSIGNED_CONTEXT ( ( #137 ) ) GLOBAL_UNIT_ASSIGNED_CONTEXT ( ( #140, #139, #138 ) ) REPRESENTATION_CONTEXT ( 'NONE', 'WORKASPACE' ) );
#175 =( LENGTH_UNIT ( ) NAMED_UNIT ( * ) SI_UNIT ( .MILLI., .METRE. ) );
#176 = MECHANICAL_DESIGN_GEOMETRIC_PRESENTATION_REPRESENTATION (  '', ( #178 ), #135 ) ;
#177 = PRESENTATION_LAYER_ASSIGNMENT (  '', '', ( #178 ) ) ;
#178 = STYLED_ITEM ( 'NONE', ( #179 ), #72 ) ;
#179 = PRESENTATION_STYLE_ASSIGNMENT (( #180 ) ) ;
#180 = SURFACE_STYLE_USAGE ( .BOTH. , #181 ) ;
#181 = SURFACE_SIDE_STYLE ('',( #182 ) ) ;
#182 = SURFACE_STYLE_FILL_AREA ( #160 ) ;
#183 = CARTESIAN_POINT ( 'NONE',  ( -154.2500000000000000, 22.50000000000001100, 2.000000000000000000 ) ) ;
#184 = CARTESIAN_POINT ( 'NONE',  ( 0.0000000000000000000, 0.0000000000000000000, 0.0000000000000000000 ) ) ;
#185 = DIRECTION ( 'NONE',  ( 1.000000000000000000, 0.0000000000000000000, 0.0000000000000000000 ) ) ;
#186 = CARTESIAN_POINT ( 'NONE',  ( 154.2500000000000000, -22.49999999999998900, 0.0000000000000000000 ) ) ;
#187 = DIRECTION ( 'NONE',  ( 1.000000000000000000, 0.0000000000000000000, 0.0000000000000000000 ) ) ;
#188 = VECTOR ( 'NONE', #187, 1000.000000000000000 ) ;
#189 = CARTESIAN_POINT ( 'NONE',  ( -154.2500000000000000, -22.49999999999998900, 0.0000000000000000000 ) ) ;
#190 = LINE ( 'NONE', #189, #188 ) ;
#191 = DIRECTION ( 'NONE',  ( -0.0000000000000000000, -0.0000000000000000000, -1.000000000000000000 ) ) ;
#192 = VECTOR ( 'NONE', #191, 1000.000000000000000 ) ;
#193 = CARTESIAN_POINT ( 'NONE',  ( 154.2500000000000000, -22.49999999999998900, 2.000000000000000000 ) ) ;
#194 = LINE ( 'NONE', #193, #192 ) ;
#195 = CARTESIAN_POINT ( 'NONE',  ( 154.2500000000000000, -22.49999999999998900, 2.000000000000000000 ) ) ;
#196 = DIRECTION ( 'NONE',  ( 0.0000000000000000000, 0.0000000000000000000, 1.000000000000000000 ) ) ;
#197 = DIRECTION ( 'NONE',  ( -1.000000000000000000, 0.0000000000000000000, 0.0000000000000000000 ) ) ;
#198 = CARTESIAN_POINT ( 'NONE',  ( 154.2500000000000000, 22.50000000000001100, 2.000000000000000000 ) ) ;
#199 = AXIS2_PLACEMENT_3D ( 'NONE', #198, #197, #196 ) ;
#200 = PLANE ( 'NONE',  #199 ) ;
#201 = FACE_OUTER_BOUND ( 'NONE', #96, .T. ) ;
#202 = DIRECTION ( 'NONE',  ( 1.000000000000000000, 0.0000000000000000000, 0.0000000000000000000 ) ) ;
#203 = VECTOR ( 'NONE', #202, 1000.000000000000000 ) ;
#204 = CARTESIAN_POINT ( 'NONE',  ( -154.2500000000000000, -22.49999999999998900, 2.000000000000000000 ) ) ;
#205 = LINE ( 'NONE', #204, #203 ) ;
#206 = PRODUCT ( '07700091', '07700091', '', ( #207 ) ) ;
#207 = PRODUCT_CONTEXT ( 'NONE', #209, 'mechanical' ) ;
#208 = APPLICATION_PROTOCOL_DEFINITION ( 'draft international standard', 'automotive_design', 1998, #209 ) ;
#209 = APPLICATION_CONTEXT ( 'automotive_design' ) ;
#210 = NEXT_ASSEMBLY_USAGE_OCCURRENCE ( 'NAUO1', ' ', ' ', #219, #121, $ ) ;
#211 =( REPRESENTATION_RELATIONSHIP ('NONE','NONE', #165, #168 ) REPRESENTATION_RELATIONSHIP_WITH_TRANSFORMATION ( #123 )SHAPE_REPRESENTATION_RELATIONSHIP( ) );
#212 = SHAPE_DEFINITION_REPRESENTATION ( #118, #168 ) ;
#213 = CARTESIAN_POINT ( 'NONE',  ( -154.2500000000000000, 22.50000000000001100, 0.0000000000000000000 ) ) ;
#214 = FILL_AREA_STYLE_COLOUR ( '', #161 ) ;
#215 = VECTOR ( 'NONE', #141, 1000.000000000000000 ) ;
#216 = CARTESIAN_POINT ( 'NONE',  ( -154.2500000000000000, -22.49999999999998900, 0.0000000000000000000 ) ) ;
#217 = CARTESIAN_POINT ( 'NONE',  ( -154.2500000000000000, 22.50000000000001100, 0.0000000000000000000 ) ) ;
#218 = LINE ( 'NONE', #217, #215 ) ;
#219 = PRODUCT_DEFINITION ( 'UNKNOWN', '', #221, #220 ) ;
#220 = PRODUCT_DEFINITION_CONTEXT ( 'detailed design', #1, 'design' ) ;
#221 = PRODUCT_DEFINITION_FORMATION_WITH_SPECIFIED_SOURCE ( 'ANY', '', #206, .NOT_KNOWN. ) ;
#222 = SHAPE_DEFINITION_REPRESENTATION ( #223, #165 ) ;
#223 = PRODUCT_DEFINITION_SHAPE ( 'NONE', 'NONE',  #219 ) ;
#224 = PRODUCT_RELATED_PRODUCT_CATEGORY ( 'part', '', ( #206 ) ) ;
ENDSEC;
END-ISO-10303-21;
