ISO-10303-21;
HEADER;
FILE_DESCRIPTION (( 'STEP AP214' ),
    '1' );
FILE_NAME ('07700092.STEP',
    '2008-05-28T05:51:49',
    ( 'baramundi Management Suite Install User' ),
    ( 'ROSE Systemtechnik GmbH' ),
    'SwSTEP 2.0',
    'SolidWorks 2008',
    '' );
FILE_SCHEMA (( 'AUTOMOTIVE_DESIGN' ));
ENDSEC;

DATA;
#1 = EDGE_CURVE ( 'NONE', #178, #17, #152, .T. ) ;
#2 = ORIENTED_EDGE ( 'NONE', *, *, #191, .T. ) ;
#3 = ADVANCED_FACE ( 'NONE', ( #148 ), #147, .T. ) ;
#4 = EDGE_LOOP ( 'NONE', ( #5, #6, #7, #8 ) ) ;
#5 = ORIENTED_EDGE ( 'NONE', *, *, #165, .T. ) ;
#6 = ORIENTED_EDGE ( 'NONE', *, *, #189, .T. ) ;
#7 = ORIENTED_EDGE ( 'NONE', *, *, #193, .T. ) ;
#8 = ORIENTED_EDGE ( 'NONE', *, *, #1, .T. ) ;
#9 = VERTEX_POINT ( 'NONE', #142 ) ;
#10 = ORIENTED_EDGE ( 'NONE', *, *, #11, .T. ) ;
#11 = EDGE_CURVE ( 'NONE', #160, #9, #141, .T. ) ;
#12 = EDGE_CURVE ( 'NONE', #17, #159, #137, .T. ) ;
#13 = EDGE_LOOP ( 'NONE', ( #10, #190, #186, #184 ) ) ;
#14 = ADVANCED_FACE ( 'NONE', ( #133 ), #131, .F. ) ;
#15 = ORIENTED_EDGE ( 'NONE', *, *, #12, .T. ) ;
#16 = CARTESIAN_POINT ( 'NONE',  ( 0.0000000000000000000, 0.0000000000000000000, 0.0000000000000000000 ) ) ;
#17 = VERTEX_POINT ( 'NONE', #132 ) ;
#18 = AXIS2_PLACEMENT_3D ( 'NONE', #16, #34, #33 ) ;
#19 =( GEOMETRIC_REPRESENTATION_CONTEXT ( 3 ) GLOBAL_UNCERTAINTY_ASSIGNED_CONTEXT ( ( #20 ) ) GLOBAL_UNIT_ASSIGNED_CONTEXT ( ( #23, #22, #21 ) ) REPRESENTATION_CONTEXT ( 'NONE', 'WORKASPACE' ) );
#20 = UNCERTAINTY_MEASURE_WITH_UNIT (LENGTH_MEASURE( 1.000000000000000100E-005 ), #23, 'distance_accuracy_value', 'NONE');
#21 =( NAMED_UNIT ( * ) SI_UNIT ( $, .STERADIAN. ) SOLID_ANGLE_UNIT ( ) );
#22 =( NAMED_UNIT ( * ) PLANE_ANGLE_UNIT ( ) SI_UNIT ( $, .RADIAN. ) );
#23 =( LENGTH_UNIT ( ) NAMED_UNIT ( * ) SI_UNIT ( .MILLI., .METRE. ) );
#24 = DIRECTION ( 'NONE',  ( 1.000000000000000000, 0.0000000000000000000, 0.0000000000000000000 ) ) ;
#25 = DIRECTION ( 'NONE',  ( 0.0000000000000000000, 0.0000000000000000000, 1.000000000000000000 ) ) ;
#26 = CARTESIAN_POINT ( 'NONE',  ( 0.0000000000000000000, 0.0000000000000000000, 0.0000000000000000000 ) ) ;
#27 = AXIS2_PLACEMENT_3D ( 'NONE', #26, #25, #24 ) ;
#28 = DIRECTION ( 'NONE',  ( 1.000000000000000000, 0.0000000000000000000, 0.0000000000000000000 ) ) ;
#29 = DIRECTION ( 'NONE',  ( 0.0000000000000000000, 0.0000000000000000000, 1.000000000000000000 ) ) ;
#30 = CARTESIAN_POINT ( 'NONE',  ( 0.0000000000000000000, 0.0000000000000000000, 0.0000000000000000000 ) ) ;
#31 = AXIS2_PLACEMENT_3D ( 'NONE', #30, #29, #28 ) ;
#32 = SHAPE_REPRESENTATION ( '07700092', ( #18, #27 ), #19 ) ;
#33 = DIRECTION ( 'NONE',  ( 1.000000000000000000, 0.0000000000000000000, 0.0000000000000000000 ) ) ;
#34 = DIRECTION ( 'NONE',  ( 0.0000000000000000000, 0.0000000000000000000, 1.000000000000000000 ) ) ;
#35 = SHAPE_REPRESENTATION_RELATIONSHIP ( 'NONE' , 'NONE' ,  #36, #41 ) ;
#36 = SHAPE_REPRESENTATION ( '95438_Standard', ( #40 ), #42 ) ;
#37 = DIRECTION ( 'NONE',  ( 1.000000000000000000, 0.0000000000000000000, 0.0000000000000000000 ) ) ;
#38 = DIRECTION ( 'NONE',  ( 0.0000000000000000000, 0.0000000000000000000, 1.000000000000000000 ) ) ;
#39 = CARTESIAN_POINT ( 'NONE',  ( 0.0000000000000000000, 0.0000000000000000000, 0.0000000000000000000 ) ) ;
#40 = AXIS2_PLACEMENT_3D ( 'NONE', #39, #38, #37 ) ;
#41 = ADVANCED_BREP_SHAPE_REPRESENTATION ( '', ( #154, #40 ), #42 ) ;
#42 =( GEOMETRIC_REPRESENTATION_CONTEXT ( 3 ) GLOBAL_UNCERTAINTY_ASSIGNED_CONTEXT ( ( #73 ) ) GLOBAL_UNIT_ASSIGNED_CONTEXT ( ( #153, #75, #74 ) ) REPRESENTATION_CONTEXT ( 'NONE', 'WORKASPACE' ) );
#43 = PLANE ( 'NONE',  #100 ) ;
#44 = FACE_OUTER_BOUND ( 'NONE', #180, .T. ) ;
#45 = CARTESIAN_POINT ( 'NONE',  ( 154.2500000000000000, 45.50000000000001400, 2.000000000000000000 ) ) ;
#46 = CARTESIAN_POINT ( 'NONE',  ( 154.2500000000000000, 45.50000000000001400, 0.0000000000000000000 ) ) ;
#47 = DIRECTION ( 'NONE',  ( -0.0000000000000000000, 1.000000000000000000, -0.0000000000000000000 ) ) ;
#48 = VECTOR ( 'NONE', #47, 1000.000000000000000 ) ;
#49 = CARTESIAN_POINT ( 'NONE',  ( 154.2500000000000000, 45.50000000000001400, 0.0000000000000000000 ) ) ;
#50 = DIRECTION ( 'NONE',  ( 0.0000000000000000000, 0.0000000000000000000, 1.000000000000000000 ) ) ;
#51 = DIRECTION ( 'NONE',  ( -1.000000000000000000, 0.0000000000000000000, 0.0000000000000000000 ) ) ;
#52 = AXIS2_PLACEMENT_3D ( 'NONE', #54, #51, #50 ) ;
#53 = LINE ( 'NONE', #49, #48 ) ;
#54 = CARTESIAN_POINT ( 'NONE',  ( 154.2500000000000000, 45.50000000000001400, 2.000000000000000000 ) ) ;
#55 = PLANE ( 'NONE',  #52 ) ;
#56 = DIRECTION ( 'NONE',  ( 1.000000000000000000, 0.0000000000000000000, 0.0000000000000000000 ) ) ;
#57 = DIRECTION ( 'NONE',  ( -0.0000000000000000000, 0.0000000000000000000, 1.000000000000000000 ) ) ;
#58 = AXIS2_PLACEMENT_3D ( 'NONE', #60, #57, #56 ) ;
#59 = FACE_OUTER_BOUND ( 'NONE', #188, .T. ) ;
#60 = CARTESIAN_POINT ( 'NONE',  ( -154.2500000000000000, -45.50000000000000000, 0.0000000000000000000 ) ) ;
#61 = PLANE ( 'NONE',  #58 ) ;
#62 = FACE_OUTER_BOUND ( 'NONE', #166, .T. ) ;
#63 = DIRECTION ( 'NONE',  ( 0.0000000000000000000, -1.000000000000000000, 0.0000000000000000000 ) ) ;
#64 = VECTOR ( 'NONE', #63, 1000.000000000000000 ) ;
#65 = CARTESIAN_POINT ( 'NONE',  ( -154.2500000000000000, 45.50000000000001400, 2.000000000000000000 ) ) ;
#66 = LINE ( 'NONE', #65, #64 ) ;
#67 = CARTESIAN_POINT ( 'NONE',  ( -154.2500000000000000, -45.50000000000000000, 2.000000000000000000 ) ) ;
#68 = DIRECTION ( 'NONE',  ( -0.0000000000000000000, -0.0000000000000000000, -1.000000000000000000 ) ) ;
#69 = VECTOR ( 'NONE', #68, 1000.000000000000000 ) ;
#70 = CARTESIAN_POINT ( 'NONE',  ( -154.2500000000000000, -45.50000000000000000, 2.000000000000000000 ) ) ;
#71 = LINE ( 'NONE', #70, #69 ) ;
#72 = CARTESIAN_POINT ( 'NONE',  ( -154.2500000000000000, -45.50000000000000000, 0.0000000000000000000 ) ) ;
#73 = UNCERTAINTY_MEASURE_WITH_UNIT (LENGTH_MEASURE( 1.000000000000000100E-005 ), #153, 'distance_accuracy_value', 'NONE');
#74 =( NAMED_UNIT ( * ) SI_UNIT ( $, .STERADIAN. ) SOLID_ANGLE_UNIT ( ) );
#75 =( NAMED_UNIT ( * ) PLANE_ANGLE_UNIT ( ) SI_UNIT ( $, .RADIAN. ) );
#76 = DIRECTION ( 'NONE',  ( -0.0000000000000000000, 1.000000000000000000, -0.0000000000000000000 ) ) ;
#77 = VECTOR ( 'NONE', #76, 1000.000000000000000 ) ;
#78 = CARTESIAN_POINT ( 'NONE',  ( 154.2500000000000000, 45.50000000000001400, 2.000000000000000000 ) ) ;
#79 = LINE ( 'NONE', #78, #77 ) ;
#80 = DIRECTION ( 'NONE',  ( -0.0000000000000000000, -0.0000000000000000000, -1.000000000000000000 ) ) ;
#81 = VECTOR ( 'NONE', #80, 1000.000000000000000 ) ;
#82 = CARTESIAN_POINT ( 'NONE',  ( 154.2500000000000000, 45.50000000000001400, 2.000000000000000000 ) ) ;
#83 = LINE ( 'NONE', #82, #81 ) ;
#84 = DIRECTION ( 'NONE',  ( 1.000000000000000000, 0.0000000000000000000, 0.0000000000000000000 ) ) ;
#85 = VECTOR ( 'NONE', #84, 1000.000000000000000 ) ;
#86 = CARTESIAN_POINT ( 'NONE',  ( -154.2500000000000000, -45.50000000000000000, 2.000000000000000000 ) ) ;
#87 = LINE ( 'NONE', #86, #85 ) ;
#88 = DIRECTION ( 'NONE',  ( -0.0000000000000000000, -0.0000000000000000000, -1.000000000000000000 ) ) ;
#89 = VECTOR ( 'NONE', #88, 1000.000000000000000 ) ;
#90 = CARTESIAN_POINT ( 'NONE',  ( 154.2500000000000000, -45.50000000000000000, 2.000000000000000000 ) ) ;
#91 = LINE ( 'NONE', #90, #89 ) ;
#92 = CARTESIAN_POINT ( 'NONE',  ( 154.2500000000000000, -45.50000000000000000, 2.000000000000000000 ) ) ;
#93 = DIRECTION ( 'NONE',  ( -1.000000000000000000, -0.0000000000000000000, -0.0000000000000000000 ) ) ;
#94 = VECTOR ( 'NONE', #93, 1000.000000000000000 ) ;
#95 = CARTESIAN_POINT ( 'NONE',  ( -154.2500000000000000, 45.50000000000001400, 0.0000000000000000000 ) ) ;
#96 = LINE ( 'NONE', #95, #94 ) ;
#97 = DIRECTION ( 'NONE',  ( 0.0000000000000000000, -0.0000000000000000000, -1.000000000000000000 ) ) ;
#98 = DIRECTION ( 'NONE',  ( 0.0000000000000000000, -1.000000000000000000, 0.0000000000000000000 ) ) ;
#99 = CARTESIAN_POINT ( 'NONE',  ( -154.2500000000000000, 45.50000000000001400, 2.000000000000000000 ) ) ;
#100 = AXIS2_PLACEMENT_3D ( 'NONE', #99, #98, #97 ) ;
#101 = CARTESIAN_POINT ( 'NONE',  ( -154.2500000000000000, 45.50000000000001400, 0.0000000000000000000 ) ) ;
#102 = DIRECTION ( 'NONE',  ( 0.0000000000000000000, -1.000000000000000000, 0.0000000000000000000 ) ) ;
#103 = VECTOR ( 'NONE', #102, 1000.000000000000000 ) ;
#104 = CARTESIAN_POINT ( 'NONE',  ( -154.2500000000000000, 45.50000000000001400, 0.0000000000000000000 ) ) ;
#105 = DIRECTION ( 'NONE',  ( -0.0000000000000000000, 0.0000000000000000000, -1.000000000000000000 ) ) ;
#106 = DIRECTION ( 'NONE',  ( 1.000000000000000000, 0.0000000000000000000, -0.0000000000000000000 ) ) ;
#107 = CARTESIAN_POINT ( 'NONE',  ( -154.2500000000000000, 45.50000000000001400, 2.000000000000000000 ) ) ;
#108 = AXIS2_PLACEMENT_3D ( 'NONE', #107, #106, #105 ) ;
#109 = LINE ( 'NONE', #104, #103 ) ;
#110 = PLANE ( 'NONE',  #108 ) ;
#111 = FACE_OUTER_BOUND ( 'NONE', #156, .T. ) ;
#112 =( GEOMETRIC_REPRESENTATION_CONTEXT ( 3 ) GLOBAL_UNCERTAINTY_ASSIGNED_CONTEXT ( ( #113 ) ) GLOBAL_UNIT_ASSIGNED_CONTEXT ( ( #116, #115, #114 ) ) REPRESENTATION_CONTEXT ( 'NONE', 'WORKASPACE' ) );
#113 = UNCERTAINTY_MEASURE_WITH_UNIT (LENGTH_MEASURE( 1.000000000000000100E-005 ), #116, 'distance_accuracy_value', 'NONE');
#114 =( NAMED_UNIT ( * ) SI_UNIT ( $, .STERADIAN. ) SOLID_ANGLE_UNIT ( ) );
#115 =( NAMED_UNIT ( * ) PLANE_ANGLE_UNIT ( ) SI_UNIT ( $, .RADIAN. ) );
#116 =( LENGTH_UNIT ( ) NAMED_UNIT ( * ) SI_UNIT ( .MILLI., .METRE. ) );
#117 = MECHANICAL_DESIGN_GEOMETRIC_PRESENTATION_REPRESENTATION (  '', ( #119 ), #112 ) ;
#118 = PRESENTATION_LAYER_ASSIGNMENT (  '', '', ( #119 ) ) ;
#119 = STYLED_ITEM ( 'NONE', ( #120 ), #154 ) ;
#120 = PRESENTATION_STYLE_ASSIGNMENT (( #121 ) ) ;
#121 = SURFACE_STYLE_USAGE ( .BOTH. , #122 ) ;
#122 = SURFACE_SIDE_STYLE ('',( #123 ) ) ;
#123 = SURFACE_STYLE_FILL_AREA ( #124 ) ;
#124 = FILL_AREA_STYLE ('',( #125 ) ) ;
#125 = FILL_AREA_STYLE_COLOUR ( '', #126 ) ;
#126 = COLOUR_RGB ( '',0.7529411764705882200, 0.7529411764705882200, 0.7529411764705882200 ) ;
#127 = DIRECTION ( 'NONE',  ( 0.0000000000000000000, -0.0000000000000000000, 1.000000000000000000 ) ) ;
#128 = DIRECTION ( 'NONE',  ( 0.0000000000000000000, 1.000000000000000000, 0.0000000000000000000 ) ) ;
#129 = CARTESIAN_POINT ( 'NONE',  ( -154.2500000000000000, -45.50000000000000000, 2.000000000000000000 ) ) ;
#130 = AXIS2_PLACEMENT_3D ( 'NONE', #129, #128, #127 ) ;
#131 = PLANE ( 'NONE',  #130 ) ;
#132 = CARTESIAN_POINT ( 'NONE',  ( -154.2500000000000000, 45.50000000000001400, 2.000000000000000000 ) ) ;
#133 = FACE_OUTER_BOUND ( 'NONE', #13, .T. ) ;
#134 = DIRECTION ( 'NONE',  ( -0.0000000000000000000, -0.0000000000000000000, -1.000000000000000000 ) ) ;
#135 = VECTOR ( 'NONE', #134, 1000.000000000000000 ) ;
#136 = CARTESIAN_POINT ( 'NONE',  ( -154.2500000000000000, 45.50000000000001400, 2.000000000000000000 ) ) ;
#137 = LINE ( 'NONE', #136, #135 ) ;
#138 = DIRECTION ( 'NONE',  ( 1.000000000000000000, 0.0000000000000000000, 0.0000000000000000000 ) ) ;
#139 = VECTOR ( 'NONE', #138, 1000.000000000000000 ) ;
#140 = CARTESIAN_POINT ( 'NONE',  ( -154.2500000000000000, -45.50000000000000000, 0.0000000000000000000 ) ) ;
#141 = LINE ( 'NONE', #140, #139 ) ;
#142 = CARTESIAN_POINT ( 'NONE',  ( 154.2500000000000000, -45.50000000000000000, 0.0000000000000000000 ) ) ;
#143 = DIRECTION ( 'NONE',  ( 1.000000000000000000, 0.0000000000000000000, 0.0000000000000000000 ) ) ;
#144 = DIRECTION ( 'NONE',  ( -0.0000000000000000000, 0.0000000000000000000, 1.000000000000000000 ) ) ;
#145 = CARTESIAN_POINT ( 'NONE',  ( -154.2500000000000000, -45.50000000000000000, 2.000000000000000000 ) ) ;
#146 = AXIS2_PLACEMENT_3D ( 'NONE', #145, #144, #143 ) ;
#147 = PLANE ( 'NONE',  #146 ) ;
#148 = FACE_OUTER_BOUND ( 'NONE', #4, .T. ) ;
#149 = DIRECTION ( 'NONE',  ( -1.000000000000000000, -0.0000000000000000000, -0.0000000000000000000 ) ) ;
#150 = VECTOR ( 'NONE', #149, 1000.000000000000000 ) ;
#151 = CARTESIAN_POINT ( 'NONE',  ( -154.2500000000000000, 45.50000000000001400, 2.000000000000000000 ) ) ;
#152 = LINE ( 'NONE', #151, #150 ) ;
#153 =( LENGTH_UNIT ( ) NAMED_UNIT ( * ) SI_UNIT ( .MILLI., .METRE. ) );
#154 = MANIFOLD_SOLID_BREP ( 'NONE', #172 ) ;
#155 = ADVANCED_FACE ( 'NONE', ( #111 ), #110, .F. ) ;
#156 = EDGE_LOOP ( 'NONE', ( #157, #161, #164, #15 ) ) ;
#157 = ORIENTED_EDGE ( 'NONE', *, *, #158, .T. ) ;
#158 = EDGE_CURVE ( 'NONE', #159, #160, #109, .T. ) ;
#159 = VERTEX_POINT ( 'NONE', #101 ) ;
#160 = VERTEX_POINT ( 'NONE', #72 ) ;
#161 = ORIENTED_EDGE ( 'NONE', *, *, #162, .F. ) ;
#162 = EDGE_CURVE ( 'NONE', #163, #160, #71, .T. ) ;
#163 = VERTEX_POINT ( 'NONE', #67 ) ;
#164 = ORIENTED_EDGE ( 'NONE', *, *, #165, .F. ) ;
#165 = EDGE_CURVE ( 'NONE', #17, #163, #66, .T. ) ;
#166 = EDGE_LOOP ( 'NONE', ( #168, #169, #170, #171 ) ) ;
#167 = ADVANCED_FACE ( 'NONE', ( #62 ), #61, .F. ) ;
#168 = ORIENTED_EDGE ( 'NONE', *, *, #158, .F. ) ;
#169 = ORIENTED_EDGE ( 'NONE', *, *, #182, .F. ) ;
#170 = ORIENTED_EDGE ( 'NONE', *, *, #175, .F. ) ;
#171 = ORIENTED_EDGE ( 'NONE', *, *, #11, .F. ) ;
#172 = CLOSED_SHELL ( 'NONE', ( #155, #14, #173, #179, #3, #167 ) ) ;
#173 = ADVANCED_FACE ( 'NONE', ( #59 ), #55, .F. ) ;
#174 = ORIENTED_EDGE ( 'NONE', *, *, #175, .T. ) ;
#175 = EDGE_CURVE ( 'NONE', #9, #176, #53, .T. ) ;
#176 = VERTEX_POINT ( 'NONE', #46 ) ;
#177 = ORIENTED_EDGE ( 'NONE', *, *, #191, .F. ) ;
#178 = VERTEX_POINT ( 'NONE', #45 ) ;
#179 = ADVANCED_FACE ( 'NONE', ( #44 ), #43, .F. ) ;
#180 = EDGE_LOOP ( 'NONE', ( #181, #183, #195, #2 ) ) ;
#181 = ORIENTED_EDGE ( 'NONE', *, *, #182, .T. ) ;
#182 = EDGE_CURVE ( 'NONE', #176, #159, #96, .T. ) ;
#183 = ORIENTED_EDGE ( 'NONE', *, *, #12, .F. ) ;
#184 = ORIENTED_EDGE ( 'NONE', *, *, #162, .T. ) ;
#185 = VERTEX_POINT ( 'NONE', #92 ) ;
#186 = ORIENTED_EDGE ( 'NONE', *, *, #189, .F. ) ;
#187 = EDGE_CURVE ( 'NONE', #185, #9, #91, .T. ) ;
#188 = EDGE_LOOP ( 'NONE', ( #174, #177, #192, #194 ) ) ;
#189 = EDGE_CURVE ( 'NONE', #163, #185, #87, .T. ) ;
#190 = ORIENTED_EDGE ( 'NONE', *, *, #187, .F. ) ;
#191 = EDGE_CURVE ( 'NONE', #178, #176, #83, .T. ) ;
#192 = ORIENTED_EDGE ( 'NONE', *, *, #193, .F. ) ;
#193 = EDGE_CURVE ( 'NONE', #185, #178, #79, .T. ) ;
#194 = ORIENTED_EDGE ( 'NONE', *, *, #187, .T. ) ;
#195 = ORIENTED_EDGE ( 'NONE', *, *, #1, .F. ) ;
#196 = PRODUCT_DEFINITION_SHAPE ( 'NONE', 'NONE',  #200 ) ;
#197 = PRODUCT_RELATED_PRODUCT_CATEGORY ( 'part', '', ( #205 ) ) ;
#198 = PRODUCT_DEFINITION_FORMATION_WITH_SPECIFIED_SOURCE ( 'ANY', '', #205, .NOT_KNOWN. ) ;
#199 = ITEM_DEFINED_TRANSFORMATION ( 'NONE', 'NONE', #27,  #40 ) ;
#200 = PRODUCT_DEFINITION ( 'UNKNOWN', '', #198, #201 ) ;
#201 = PRODUCT_DEFINITION_CONTEXT ( 'detailed design', #203, 'design' ) ;
#202 = APPLICATION_PROTOCOL_DEFINITION ( 'draft international standard', 'automotive_design', 1998, #203 ) ;
#203 = APPLICATION_CONTEXT ( 'automotive_design' ) ;
#204 = SHAPE_DEFINITION_REPRESENTATION ( #196, #32 ) ;
#205 = PRODUCT ( '07700092', '07700092', '', ( #206 ) ) ;
#206 = PRODUCT_CONTEXT ( 'NONE', #213, 'mechanical' ) ;
#207 = APPLICATION_PROTOCOL_DEFINITION ( 'draft international standard', 'automotive_design', 1998, #213 ) ;
#208 =( REPRESENTATION_RELATIONSHIP ('NONE','NONE', #32, #36 ) REPRESENTATION_RELATIONSHIP_WITH_TRANSFORMATION ( #199 )SHAPE_REPRESENTATION_RELATIONSHIP( ) );
#209 = CONTEXT_DEPENDENT_SHAPE_REPRESENTATION ( #208, #211 ) ;
#210 = NEXT_ASSEMBLY_USAGE_OCCURRENCE ( 'NAUO1', ' ', ' ', #200, #217, $ ) ;
#211 = PRODUCT_DEFINITION_SHAPE ( 'NONE', 'NONE',  #210 ) ;
#212 = APPLICATION_CONTEXT ( 'automotive_design' ) ;
#213 = APPLICATION_CONTEXT ( 'automotive_design' ) ;
#214 = PRODUCT_DEFINITION_SHAPE ( 'NONE', 'NONE',  #217 ) ;
#215 = PRODUCT_RELATED_PRODUCT_CATEGORY ( 'part', '', ( #222 ) ) ;
#216 = PRODUCT_DEFINITION_FORMATION_WITH_SPECIFIED_SOURCE ( 'ANY', '', #222, .NOT_KNOWN. ) ;
#217 = PRODUCT_DEFINITION ( 'UNKNOWN', '', #216, #218 ) ;
#218 = PRODUCT_DEFINITION_CONTEXT ( 'detailed design', #220, 'design' ) ;
#219 = APPLICATION_PROTOCOL_DEFINITION ( 'draft international standard', 'automotive_design', 1998, #220 ) ;
#220 = APPLICATION_CONTEXT ( 'automotive_design' ) ;
#221 = SHAPE_DEFINITION_REPRESENTATION ( #214, #36 ) ;
#222 = PRODUCT ( '95438_Standard', '95438_Standard', '', ( #223 ) ) ;
#223 = PRODUCT_CONTEXT ( 'NONE', #212, 'mechanical' ) ;
#224 = APPLICATION_PROTOCOL_DEFINITION ( 'draft international standard', 'automotive_design', 1998, #212 ) ;
ENDSEC;
END-ISO-10303-21;
