ISO-10303-21;
HEADER;
FILE_DESCRIPTION (( 'STEP AP214' ),
    '1' );
FILE_NAME ('07700093.STEP',
    '2008-05-28T05:52:30',
    ( 'baramundi Management Suite Install User' ),
    ( 'ROSE Systemtechnik GmbH' ),
    'SwSTEP 2.0',
    'SolidWorks 2008',
    '' );
FILE_SCHEMA (( 'AUTOMOTIVE_DESIGN' ));
ENDSEC;

DATA;
#1 = ORIENTED_EDGE ( 'NONE', *, *, #17, .T. ) ;
#2 = VERTEX_POINT ( 'NONE', #75 ) ;
#3 = ORIENTED_EDGE ( 'NONE', *, *, #4, .F. ) ;
#4 = EDGE_CURVE ( 'NONE', #2, #6, #53, .T. ) ;
#5 = ORIENTED_EDGE ( 'NONE', *, *, #34, .F. ) ;
#6 = VERTEX_POINT ( 'NONE', #49 ) ;
#7 = EDGE_CURVE ( 'NONE', #31, #10, #72, .T. ) ;
#8 = EDGE_CURVE ( 'NONE', #9, #10, #86, .T. ) ;
#9 = VERTEX_POINT ( 'NONE', #43 ) ;
#10 = VERTEX_POINT ( 'NONE', #42 ) ;
#11 = ORIENTED_EDGE ( 'NONE', *, *, #8, .F. ) ;
#12 = ADVANCED_FACE ( 'NONE', ( #41 ), #40, .F. ) ;
#13 = EDGE_LOOP ( 'NONE', ( #14, #11, #5, #22 ) ) ;
#14 = ORIENTED_EDGE ( 'NONE', *, *, #7, .T. ) ;
#15 = ORIENTED_EDGE ( 'NONE', *, *, #16, .T. ) ;
#16 = EDGE_CURVE ( 'NONE', #92, #30, #87, .T. ) ;
#17 = EDGE_CURVE ( 'NONE', #2, #30, #79, .T. ) ;
#18 = ADVANCED_FACE ( 'NONE', ( #67 ), #66, .F. ) ;
#19 = ORIENTED_EDGE ( 'NONE', *, *, #20, .F. ) ;
#20 = EDGE_CURVE ( 'NONE', #9, #36, #101, .T. ) ;
#21 = ORIENTED_EDGE ( 'NONE', *, *, #38, .F. ) ;
#22 = ORIENTED_EDGE ( 'NONE', *, *, #29, .T. ) ;
#23 = EDGE_CURVE ( 'NONE', #10, #92, #100, .T. ) ;
#24 = DIRECTION ( 'NONE',  ( -0.0000000000000000000, 0.0000000000000000000, -1.000000000000000000 ) ) ;
#25 = DIRECTION ( 'NONE',  ( 1.000000000000000000, 0.0000000000000000000, -0.0000000000000000000 ) ) ;
#26 = ADVANCED_FACE ( 'NONE', ( #107 ), #104, .F. ) ;
#27 = ORIENTED_EDGE ( 'NONE', *, *, #28, .T. ) ;
#28 = EDGE_CURVE ( 'NONE', #30, #31, #114, .T. ) ;
#29 = EDGE_CURVE ( 'NONE', #6, #31, #131, .T. ) ;
#30 = VERTEX_POINT ( 'NONE', #127 ) ;
#31 = VERTEX_POINT ( 'NONE', #118 ) ;
#32 = EDGE_LOOP ( 'NONE', ( #27, #35, #3, #1 ) ) ;
#33 = MANIFOLD_SOLID_BREP ( 'NONE', #94 ) ;
#34 = EDGE_CURVE ( 'NONE', #6, #9, #140, .T. ) ;
#35 = ORIENTED_EDGE ( 'NONE', *, *, #29, .F. ) ;
#36 = VERTEX_POINT ( 'NONE', #141 ) ;
#37 = ORIENTED_EDGE ( 'NONE', *, *, #8, .T. ) ;
#38 = EDGE_CURVE ( 'NONE', #36, #92, #139, .T. ) ;
#39 = AXIS2_PLACEMENT_3D ( 'NONE', #90, #89, #88 ) ;
#40 = PLANE ( 'NONE',  #39 ) ;
#41 = FACE_OUTER_BOUND ( 'NONE', #13, .T. ) ;
#42 = CARTESIAN_POINT ( 'NONE',  ( 154.2500000000000000, -68.49999999999998600, 0.0000000000000000000 ) ) ;
#43 = CARTESIAN_POINT ( 'NONE',  ( 154.2500000000000000, -68.49999999999998600, 2.000000000000000000 ) ) ;
#44 = ADVANCED_FACE ( 'NONE', ( #135 ), #133, .F. ) ;
#45 = ORIENTED_EDGE ( 'NONE', *, *, #4, .T. ) ;
#46 = EDGE_CURVE ( 'NONE', #36, #2, #143, .T. ) ;
#47 = ORIENTED_EDGE ( 'NONE', *, *, #46, .T. ) ;
#48 = ORIENTED_EDGE ( 'NONE', *, *, #16, .F. ) ;
#49 = CARTESIAN_POINT ( 'NONE',  ( -154.2500000000000000, -68.49999999999998600, 2.000000000000000000 ) ) ;
#50 = DIRECTION ( 'NONE',  ( 0.0000000000000000000, -1.000000000000000000, 0.0000000000000000000 ) ) ;
#51 = VECTOR ( 'NONE', #50, 1000.000000000000000 ) ;
#52 = CARTESIAN_POINT ( 'NONE',  ( -154.2500000000000000, 68.50000000000001400, 2.000000000000000000 ) ) ;
#53 = LINE ( 'NONE', #52, #51 ) ;
#54 = ORIENTED_EDGE ( 'NONE', *, *, #46, .F. ) ;
#55 = ORIENTED_EDGE ( 'NONE', *, *, #17, .F. ) ;
#56 = ORIENTED_EDGE ( 'NONE', *, *, #23, .T. ) ;
#57 = EDGE_LOOP ( 'NONE', ( #97, #48, #58, #95 ) ) ;
#58 = ORIENTED_EDGE ( 'NONE', *, *, #23, .F. ) ;
#59 = ORIENTED_EDGE ( 'NONE', *, *, #34, .T. ) ;
#60 = DIRECTION ( 'NONE',  ( 0.0000000000000000000, -0.0000000000000000000, -1.000000000000000000 ) ) ;
#61 = DIRECTION ( 'NONE',  ( 0.0000000000000000000, -1.000000000000000000, 0.0000000000000000000 ) ) ;
#62 = AXIS2_PLACEMENT_3D ( 'NONE', #65, #61, #60 ) ;
#63 = CARTESIAN_POINT ( 'NONE',  ( -154.2500000000000000, 68.50000000000001400, 2.000000000000000000 ) ) ;
#64 = AXIS2_PLACEMENT_3D ( 'NONE', #63, #25, #24 ) ;
#65 = CARTESIAN_POINT ( 'NONE',  ( -154.2500000000000000, 68.50000000000001400, 2.000000000000000000 ) ) ;
#66 = PLANE ( 'NONE',  #62 ) ;
#67 = FACE_OUTER_BOUND ( 'NONE', #73, .T. ) ;
#68 = EDGE_LOOP ( 'NONE', ( #45, #59, #96, #47 ) ) ;
#69 = DIRECTION ( 'NONE',  ( 1.000000000000000000, 0.0000000000000000000, 0.0000000000000000000 ) ) ;
#70 = VECTOR ( 'NONE', #69, 1000.000000000000000 ) ;
#71 = CARTESIAN_POINT ( 'NONE',  ( -154.2500000000000000, -68.49999999999998600, 0.0000000000000000000 ) ) ;
#72 = LINE ( 'NONE', #71, #70 ) ;
#73 = EDGE_LOOP ( 'NONE', ( #15, #55, #54, #74 ) ) ;
#74 = ORIENTED_EDGE ( 'NONE', *, *, #38, .T. ) ;
#75 = CARTESIAN_POINT ( 'NONE',  ( -154.2500000000000000, 68.50000000000001400, 2.000000000000000000 ) ) ;
#76 = DIRECTION ( 'NONE',  ( -0.0000000000000000000, -0.0000000000000000000, -1.000000000000000000 ) ) ;
#77 = VECTOR ( 'NONE', #76, 1000.000000000000000 ) ;
#78 = CARTESIAN_POINT ( 'NONE',  ( -154.2500000000000000, 68.50000000000001400, 2.000000000000000000 ) ) ;
#79 = LINE ( 'NONE', #78, #77 ) ;
#80 = DIRECTION ( 'NONE',  ( -1.000000000000000000, -0.0000000000000000000, -0.0000000000000000000 ) ) ;
#81 = VECTOR ( 'NONE', #80, 1000.000000000000000 ) ;
#82 = CARTESIAN_POINT ( 'NONE',  ( -154.2500000000000000, 68.50000000000001400, 0.0000000000000000000 ) ) ;
#83 = DIRECTION ( 'NONE',  ( -0.0000000000000000000, -0.0000000000000000000, -1.000000000000000000 ) ) ;
#84 = VECTOR ( 'NONE', #83, 1000.000000000000000 ) ;
#85 = CARTESIAN_POINT ( 'NONE',  ( 154.2500000000000000, -68.49999999999998600, 2.000000000000000000 ) ) ;
#86 = LINE ( 'NONE', #85, #84 ) ;
#87 = LINE ( 'NONE', #82, #81 ) ;
#88 = DIRECTION ( 'NONE',  ( 0.0000000000000000000, -0.0000000000000000000, 1.000000000000000000 ) ) ;
#89 = DIRECTION ( 'NONE',  ( 0.0000000000000000000, 1.000000000000000000, 0.0000000000000000000 ) ) ;
#90 = CARTESIAN_POINT ( 'NONE',  ( -154.2500000000000000, -68.49999999999998600, 2.000000000000000000 ) ) ;
#91 = ADVANCED_FACE ( 'NONE', ( #222 ), #209, .F. ) ;
#92 = VERTEX_POINT ( 'NONE', #215 ) ;
#93 = ADVANCED_FACE ( 'NONE', ( #204 ), #221, .T. ) ;
#94 = CLOSED_SHELL ( 'NONE', ( #26, #12, #44, #18, #93, #91 ) ) ;
#95 = ORIENTED_EDGE ( 'NONE', *, *, #7, .F. ) ;
#96 = ORIENTED_EDGE ( 'NONE', *, *, #20, .T. ) ;
#97 = ORIENTED_EDGE ( 'NONE', *, *, #28, .F. ) ;
#98 = EDGE_LOOP ( 'NONE', ( #56, #21, #19, #37 ) ) ;
#99 = CARTESIAN_POINT ( 'NONE',  ( 154.2500000000000000, 68.50000000000001400, 0.0000000000000000000 ) ) ;
#100 = LINE ( 'NONE', #99, #106 ) ;
#101 = LINE ( 'NONE', #108, #102 ) ;
#102 = VECTOR ( 'NONE', #109, 1000.000000000000000 ) ;
#103 = UNCERTAINTY_MEASURE_WITH_UNIT (LENGTH_MEASURE( 1.000000000000000100E-005 ), #121, 'distance_accuracy_value', 'NONE');
#104 = PLANE ( 'NONE',  #64 ) ;
#105 = DIRECTION ( 'NONE',  ( -0.0000000000000000000, 1.000000000000000000, -0.0000000000000000000 ) ) ;
#106 = VECTOR ( 'NONE', #105, 1000.000000000000000 ) ;
#107 = FACE_OUTER_BOUND ( 'NONE', #32, .T. ) ;
#108 = CARTESIAN_POINT ( 'NONE',  ( 154.2500000000000000, 68.50000000000001400, 2.000000000000000000 ) ) ;
#109 = DIRECTION ( 'NONE',  ( -0.0000000000000000000, 1.000000000000000000, -0.0000000000000000000 ) ) ;
#110 = CARTESIAN_POINT ( 'NONE',  ( -154.2500000000000000, -68.49999999999998600, 2.000000000000000000 ) ) ;
#111 = SURFACE_SIDE_STYLE ('',( #112 ) ) ;
#112 = SURFACE_STYLE_FILL_AREA ( #129 ) ;
#113 = DIRECTION ( 'NONE',  ( -0.0000000000000000000, -0.0000000000000000000, -1.000000000000000000 ) ) ;
#114 = LINE ( 'NONE', #115, #117 ) ;
#115 = CARTESIAN_POINT ( 'NONE',  ( -154.2500000000000000, 68.50000000000001400, 0.0000000000000000000 ) ) ;
#116 = DIRECTION ( 'NONE',  ( 0.0000000000000000000, -1.000000000000000000, 0.0000000000000000000 ) ) ;
#117 = VECTOR ( 'NONE', #116, 1000.000000000000000 ) ;
#118 = CARTESIAN_POINT ( 'NONE',  ( -154.2500000000000000, -68.49999999999998600, 0.0000000000000000000 ) ) ;
#119 =( NAMED_UNIT ( * ) SI_UNIT ( $, .STERADIAN. ) SOLID_ANGLE_UNIT ( ) );
#120 =( NAMED_UNIT ( * ) PLANE_ANGLE_UNIT ( ) SI_UNIT ( $, .RADIAN. ) );
#121 =( LENGTH_UNIT ( ) NAMED_UNIT ( * ) SI_UNIT ( .MILLI., .METRE. ) );
#122 = MECHANICAL_DESIGN_GEOMETRIC_PRESENTATION_REPRESENTATION (  '', ( #124 ), #147 ) ;
#123 = PRESENTATION_LAYER_ASSIGNMENT (  '', '', ( #124 ) ) ;
#124 = STYLED_ITEM ( 'NONE', ( #125 ), #33 ) ;
#125 = PRESENTATION_STYLE_ASSIGNMENT (( #126 ) ) ;
#126 = SURFACE_STYLE_USAGE ( .BOTH. , #111 ) ;
#127 = CARTESIAN_POINT ( 'NONE',  ( -154.2500000000000000, 68.50000000000001400, 0.0000000000000000000 ) ) ;
#128 = VECTOR ( 'NONE', #113, 1000.000000000000000 ) ;
#129 = FILL_AREA_STYLE ('',( #130 ) ) ;
#130 = FILL_AREA_STYLE_COLOUR ( '', #132 ) ;
#131 = LINE ( 'NONE', #110, #128 ) ;
#132 = COLOUR_RGB ( '',0.7529411764705882200, 0.7529411764705882200, 0.7529411764705882200 ) ;
#133 = PLANE ( 'NONE',  #134 ) ;
#134 = AXIS2_PLACEMENT_3D ( 'NONE', #146, #145, #144 ) ;
#135 = FACE_OUTER_BOUND ( 'NONE', #98, .T. ) ;
#136 = DIRECTION ( 'NONE',  ( -0.0000000000000000000, -0.0000000000000000000, -1.000000000000000000 ) ) ;
#137 = VECTOR ( 'NONE', #136, 1000.000000000000000 ) ;
#138 = CARTESIAN_POINT ( 'NONE',  ( 154.2500000000000000, 68.50000000000001400, 2.000000000000000000 ) ) ;
#139 = LINE ( 'NONE', #138, #137 ) ;
#140 = LINE ( 'NONE', #150, #149 ) ;
#141 = CARTESIAN_POINT ( 'NONE',  ( 154.2500000000000000, 68.50000000000001400, 2.000000000000000000 ) ) ;
#142 = CARTESIAN_POINT ( 'NONE',  ( -154.2500000000000000, 68.50000000000001400, 2.000000000000000000 ) ) ;
#143 = LINE ( 'NONE', #142, #224 ) ;
#144 = DIRECTION ( 'NONE',  ( 0.0000000000000000000, 0.0000000000000000000, 1.000000000000000000 ) ) ;
#145 = DIRECTION ( 'NONE',  ( -1.000000000000000000, 0.0000000000000000000, 0.0000000000000000000 ) ) ;
#146 = CARTESIAN_POINT ( 'NONE',  ( 154.2500000000000000, 68.50000000000001400, 2.000000000000000000 ) ) ;
#147 =( GEOMETRIC_REPRESENTATION_CONTEXT ( 3 ) GLOBAL_UNCERTAINTY_ASSIGNED_CONTEXT ( ( #103 ) ) GLOBAL_UNIT_ASSIGNED_CONTEXT ( ( #121, #120, #119 ) ) REPRESENTATION_CONTEXT ( 'NONE', 'WORKASPACE' ) );
#148 = DIRECTION ( 'NONE',  ( 1.000000000000000000, 0.0000000000000000000, 0.0000000000000000000 ) ) ;
#149 = VECTOR ( 'NONE', #148, 1000.000000000000000 ) ;
#150 = CARTESIAN_POINT ( 'NONE',  ( -154.2500000000000000, -68.49999999999998600, 2.000000000000000000 ) ) ;
#151 = PRODUCT_DEFINITION_SHAPE ( 'NONE', 'NONE',  #154 ) ;
#152 = PRODUCT_RELATED_PRODUCT_CATEGORY ( 'part', '', ( #179 ) ) ;
#153 = PRODUCT_DEFINITION_FORMATION_WITH_SPECIFIED_SOURCE ( 'ANY', '', #179, .NOT_KNOWN. ) ;
#154 = PRODUCT_DEFINITION ( 'UNKNOWN', '', #153, #155 ) ;
#155 = PRODUCT_DEFINITION_CONTEXT ( 'detailed design', #178, 'design' ) ;
#156 = APPLICATION_PROTOCOL_DEFINITION ( 'draft international standard', 'automotive_design', 1998, #178 ) ;
#157 = DIRECTION ( 'NONE',  ( 1.000000000000000000, 0.0000000000000000000, 0.0000000000000000000 ) ) ;
#158 =( GEOMETRIC_REPRESENTATION_CONTEXT ( 3 ) GLOBAL_UNCERTAINTY_ASSIGNED_CONTEXT ( ( #159 ) ) GLOBAL_UNIT_ASSIGNED_CONTEXT ( ( #162, #161, #160 ) ) REPRESENTATION_CONTEXT ( 'NONE', 'WORKASPACE' ) );
#159 = UNCERTAINTY_MEASURE_WITH_UNIT (LENGTH_MEASURE( 1.000000000000000100E-005 ), #162, 'distance_accuracy_value', 'NONE');
#160 =( NAMED_UNIT ( * ) SI_UNIT ( $, .STERADIAN. ) SOLID_ANGLE_UNIT ( ) );
#161 =( NAMED_UNIT ( * ) PLANE_ANGLE_UNIT ( ) SI_UNIT ( $, .RADIAN. ) );
#162 =( LENGTH_UNIT ( ) NAMED_UNIT ( * ) SI_UNIT ( .MILLI., .METRE. ) );
#163 = DIRECTION ( 'NONE',  ( 1.000000000000000000, 0.0000000000000000000, 0.0000000000000000000 ) ) ;
#164 = DIRECTION ( 'NONE',  ( 0.0000000000000000000, 0.0000000000000000000, 1.000000000000000000 ) ) ;
#165 = CARTESIAN_POINT ( 'NONE',  ( 0.0000000000000000000, 0.0000000000000000000, 0.0000000000000000000 ) ) ;
#166 = AXIS2_PLACEMENT_3D ( 'NONE', #165, #164, #163 ) ;
#167 = DIRECTION ( 'NONE',  ( 1.000000000000000000, 0.0000000000000000000, 0.0000000000000000000 ) ) ;
#168 = DIRECTION ( 'NONE',  ( 0.0000000000000000000, 0.0000000000000000000, 1.000000000000000000 ) ) ;
#169 = CARTESIAN_POINT ( 'NONE',  ( 0.0000000000000000000, 0.0000000000000000000, 0.0000000000000000000 ) ) ;
#170 = AXIS2_PLACEMENT_3D ( 'NONE', #169, #168, #167 ) ;
#171 = SHAPE_REPRESENTATION ( '07700093', ( #210, #166 ), #158 ) ;
#172 = DIRECTION ( 'NONE',  ( 0.0000000000000000000, 0.0000000000000000000, 1.000000000000000000 ) ) ;
#173 = CARTESIAN_POINT ( 'NONE',  ( 0.0000000000000000000, 0.0000000000000000000, 0.0000000000000000000 ) ) ;
#174 = SHAPE_REPRESENTATION_RELATIONSHIP ( 'NONE' , 'NONE' ,  #175, #207 ) ;
#175 = SHAPE_REPRESENTATION ( '95439_Standard', ( #206 ), #208 ) ;
#176 = DIRECTION ( 'NONE',  ( 1.000000000000000000, 0.0000000000000000000, 0.0000000000000000000 ) ) ;
#177 = DIRECTION ( 'NONE',  ( 0.0000000000000000000, 0.0000000000000000000, 1.000000000000000000 ) ) ;
#178 = APPLICATION_CONTEXT ( 'automotive_design' ) ;
#179 = PRODUCT ( '07700093', '07700093', '', ( #180 ) ) ;
#180 = PRODUCT_CONTEXT ( 'NONE', #183, 'mechanical' ) ;
#181 = APPLICATION_PROTOCOL_DEFINITION ( 'draft international standard', 'automotive_design', 1998, #183 ) ;
#182 = APPLICATION_CONTEXT ( 'automotive_design' ) ;
#183 = APPLICATION_CONTEXT ( 'automotive_design' ) ;
#184 = PRODUCT_DEFINITION_SHAPE ( 'NONE', 'NONE',  #200 ) ;
#185 =( REPRESENTATION_RELATIONSHIP ('NONE','NONE', #171, #175 ) REPRESENTATION_RELATIONSHIP_WITH_TRANSFORMATION ( #190 )SHAPE_REPRESENTATION_RELATIONSHIP( ) );
#186 = SHAPE_DEFINITION_REPRESENTATION ( #151, #171 ) ;
#187 = PRODUCT_DEFINITION_SHAPE ( 'NONE', 'NONE',  #191 ) ;
#188 = PRODUCT_RELATED_PRODUCT_CATEGORY ( 'part', '', ( #196 ) ) ;
#189 = PRODUCT_DEFINITION_FORMATION_WITH_SPECIFIED_SOURCE ( 'ANY', '', #196, .NOT_KNOWN. ) ;
#190 = ITEM_DEFINED_TRANSFORMATION ( 'NONE', 'NONE', #166,  #206 ) ;
#191 = PRODUCT_DEFINITION ( 'UNKNOWN', '', #189, #192 ) ;
#192 = PRODUCT_DEFINITION_CONTEXT ( 'detailed design', #194, 'design' ) ;
#193 = APPLICATION_PROTOCOL_DEFINITION ( 'draft international standard', 'automotive_design', 1998, #194 ) ;
#194 = APPLICATION_CONTEXT ( 'automotive_design' ) ;
#195 = SHAPE_DEFINITION_REPRESENTATION ( #187, #175 ) ;
#196 = PRODUCT ( '95439_Standard', '95439_Standard', '', ( #197 ) ) ;
#197 = PRODUCT_CONTEXT ( 'NONE', #182, 'mechanical' ) ;
#198 = APPLICATION_PROTOCOL_DEFINITION ( 'draft international standard', 'automotive_design', 1998, #182 ) ;
#199 = CONTEXT_DEPENDENT_SHAPE_REPRESENTATION ( #185, #184 ) ;
#200 = NEXT_ASSEMBLY_USAGE_OCCURRENCE ( 'NAUO1', ' ', ' ', #154, #191, $ ) ;
#201 = DIRECTION ( 'NONE',  ( -0.0000000000000000000, 0.0000000000000000000, 1.000000000000000000 ) ) ;
#202 = CARTESIAN_POINT ( 'NONE',  ( -154.2500000000000000, -68.49999999999998600, 0.0000000000000000000 ) ) ;
#203 = AXIS2_PLACEMENT_3D ( 'NONE', #202, #201, #216 ) ;
#204 = FACE_OUTER_BOUND ( 'NONE', #68, .T. ) ;
#205 = CARTESIAN_POINT ( 'NONE',  ( 0.0000000000000000000, 0.0000000000000000000, 0.0000000000000000000 ) ) ;
#206 = AXIS2_PLACEMENT_3D ( 'NONE', #205, #177, #176 ) ;
#207 = ADVANCED_BREP_SHAPE_REPRESENTATION ( '', ( #33, #206 ), #208 ) ;
#208 =( GEOMETRIC_REPRESENTATION_CONTEXT ( 3 ) GLOBAL_UNCERTAINTY_ASSIGNED_CONTEXT ( ( #211 ) ) GLOBAL_UNIT_ASSIGNED_CONTEXT ( ( #214, #213, #212 ) ) REPRESENTATION_CONTEXT ( 'NONE', 'WORKASPACE' ) );
#209 = PLANE ( 'NONE',  #203 ) ;
#210 = AXIS2_PLACEMENT_3D ( 'NONE', #173, #172, #157 ) ;
#211 = UNCERTAINTY_MEASURE_WITH_UNIT (LENGTH_MEASURE( 1.000000000000000100E-005 ), #214, 'distance_accuracy_value', 'NONE');
#212 =( NAMED_UNIT ( * ) SI_UNIT ( $, .STERADIAN. ) SOLID_ANGLE_UNIT ( ) );
#213 =( NAMED_UNIT ( * ) PLANE_ANGLE_UNIT ( ) SI_UNIT ( $, .RADIAN. ) );
#214 =( LENGTH_UNIT ( ) NAMED_UNIT ( * ) SI_UNIT ( .MILLI., .METRE. ) );
#215 = CARTESIAN_POINT ( 'NONE',  ( 154.2500000000000000, 68.50000000000001400, 0.0000000000000000000 ) ) ;
#216 = DIRECTION ( 'NONE',  ( 1.000000000000000000, 0.0000000000000000000, 0.0000000000000000000 ) ) ;
#217 = DIRECTION ( 'NONE',  ( 1.000000000000000000, 0.0000000000000000000, 0.0000000000000000000 ) ) ;
#218 = DIRECTION ( 'NONE',  ( -0.0000000000000000000, 0.0000000000000000000, 1.000000000000000000 ) ) ;
#219 = CARTESIAN_POINT ( 'NONE',  ( -154.2500000000000000, -68.49999999999998600, 2.000000000000000000 ) ) ;
#220 = AXIS2_PLACEMENT_3D ( 'NONE', #219, #218, #217 ) ;
#221 = PLANE ( 'NONE',  #220 ) ;
#222 = FACE_OUTER_BOUND ( 'NONE', #57, .T. ) ;
#223 = DIRECTION ( 'NONE',  ( -1.000000000000000000, -0.0000000000000000000, -0.0000000000000000000 ) ) ;
#224 = VECTOR ( 'NONE', #223, 1000.000000000000000 ) ;
ENDSEC;
END-ISO-10303-21;
