ISO-10303-21;
HEADER;
FILE_DESCRIPTION (( 'STEP AP214' ),
    '1' );
FILE_NAME ('07700094.STEP',
    '2008-05-28T05:54:05',
    ( 'baramundi Management Suite Install User' ),
    ( 'ROSE Systemtechnik GmbH' ),
    'SwSTEP 2.0',
    'SolidWorks 2008',
    '' );
FILE_SCHEMA (( 'AUTOMOTIVE_DESIGN' ));
ENDSEC;

DATA;
#1 = ADVANCED_FACE ( 'NONE', ( #67 ), #71, .F. ) ;
#2 = EDGE_CURVE ( 'NONE', #3, #47, #70, .T. ) ;
#3 = VERTEX_POINT ( 'NONE', #61 ) ;
#4 = ORIENTED_EDGE ( 'NONE', *, *, #2, .T. ) ;
#5 = ORIENTED_EDGE ( 'NONE', *, *, #28, .T. ) ;
#6 = EDGE_CURVE ( 'NONE', #3, #42, #77, .T. ) ;
#7 = ORIENTED_EDGE ( 'NONE', *, *, #2, .F. ) ;
#8 = EDGE_CURVE ( 'NONE', #33, #29, #58, .T. ) ;
#9 = ORIENTED_EDGE ( 'NONE', *, *, #16, .T. ) ;
#10 = EDGE_CURVE ( 'NONE', #29, #3, #23, .T. ) ;
#11 = ORIENTED_EDGE ( 'NONE', *, *, #10, .F. ) ;
#12 = ADVANCED_FACE ( 'NONE', ( #90 ), #102, .F. ) ;
#13 = ORIENTED_EDGE ( 'NONE', *, *, #8, .F. ) ;
#14 = ORIENTED_EDGE ( 'NONE', *, *, #38, .T. ) ;
#15 = EDGE_LOOP ( 'NONE', ( #9, #7, #11, #5 ) ) ;
#16 = EDGE_CURVE ( 'NONE', #53, #47, #86, .T. ) ;
#17 = ORIENTED_EDGE ( 'NONE', *, *, #6, .T. ) ;
#18 = ORIENTED_EDGE ( 'NONE', *, *, #35, .T. ) ;
#19 = ORIENTED_EDGE ( 'NONE', *, *, #8, .T. ) ;
#20 = EDGE_LOOP ( 'NONE', ( #17, #18, #19, #22 ) ) ;
#21 = ADVANCED_FACE ( 'NONE', ( #81 ), #98, .T. ) ;
#22 = ORIENTED_EDGE ( 'NONE', *, *, #10, .T. ) ;
#23 = LINE ( 'NONE', #91, #110 ) ;
#24 = CLOSED_SHELL ( 'NONE', ( #49, #1, #26, #12, #21, #63 ) ) ;
#25 = ORIENTED_EDGE ( 'NONE', *, *, #38, .F. ) ;
#26 = ADVANCED_FACE ( 'NONE', ( #82 ), #100, .F. ) ;
#27 = ORIENTED_EDGE ( 'NONE', *, *, #28, .F. ) ;
#28 = EDGE_CURVE ( 'NONE', #29, #53, #104, .T. ) ;
#29 = VERTEX_POINT ( 'NONE', #95 ) ;
#30 = EDGE_CURVE ( 'NONE', #31, #53, #87, .T. ) ;
#31 = VERTEX_POINT ( 'NONE', #113 ) ;
#32 = ORIENTED_EDGE ( 'NONE', *, *, #34, .T. ) ;
#33 = VERTEX_POINT ( 'NONE', #114 ) ;
#34 = EDGE_CURVE ( 'NONE', #46, #31, #121, .T. ) ;
#35 = EDGE_CURVE ( 'NONE', #42, #33, #117, .T. ) ;
#36 = ORIENTED_EDGE ( 'NONE', *, *, #41, .T. ) ;
#37 = ORIENTED_EDGE ( 'NONE', *, *, #35, .F. ) ;
#38 = EDGE_CURVE ( 'NONE', #33, #31, #182, .T. ) ;
#39 = EDGE_LOOP ( 'NONE', ( #32, #25, #37, #36 ) ) ;
#40 = ORIENTED_EDGE ( 'NONE', *, *, #41, .F. ) ;
#41 = EDGE_CURVE ( 'NONE', #42, #46, #205, .T. ) ;
#42 = VERTEX_POINT ( 'NONE', #206 ) ;
#43 = ORIENTED_EDGE ( 'NONE', *, *, #6, .F. ) ;
#44 = ORIENTED_EDGE ( 'NONE', *, *, #45, .T. ) ;
#45 = EDGE_CURVE ( 'NONE', #47, #46, #204, .T. ) ;
#46 = VERTEX_POINT ( 'NONE', #200 ) ;
#47 = VERTEX_POINT ( 'NONE', #199 ) ;
#48 = MANIFOLD_SOLID_BREP ( 'NONE', #24 ) ;
#49 = ADVANCED_FACE ( 'NONE', ( #172 ), #171, .F. ) ;
#50 = EDGE_LOOP ( 'NONE', ( #44, #40, #43, #4 ) ) ;
#51 = ORIENTED_EDGE ( 'NONE', *, *, #30, .T. ) ;
#52 = EDGE_LOOP ( 'NONE', ( #51, #27, #13, #14 ) ) ;
#53 = VERTEX_POINT ( 'NONE', #190 ) ;
#54 = CARTESIAN_POINT ( 'NONE',  ( 154.2500000000000000, 91.75000000000001400, 0.0000000000000000000 ) ) ;
#55 = DIRECTION ( 'NONE',  ( -0.0000000000000000000, 1.000000000000000000, -0.0000000000000000000 ) ) ;
#56 = VECTOR ( 'NONE', #55, 1000.000000000000000 ) ;
#57 = CARTESIAN_POINT ( 'NONE',  ( 154.2500000000000000, 91.75000000000001400, 2.000000000000000000 ) ) ;
#58 = LINE ( 'NONE', #57, #56 ) ;
#59 = DIRECTION ( 'NONE',  ( 0.0000000000000000000, 1.000000000000000000, 0.0000000000000000000 ) ) ;
#60 = CARTESIAN_POINT ( 'NONE',  ( -154.2500000000000000, -91.74999999999998600, 2.000000000000000000 ) ) ;
#61 = CARTESIAN_POINT ( 'NONE',  ( -154.2500000000000000, 91.75000000000001400, 2.000000000000000000 ) ) ;
#62 = EDGE_LOOP ( 'NONE', ( #72, #79, #65, #73 ) ) ;
#63 = ADVANCED_FACE ( 'NONE', ( #189 ), #188, .F. ) ;
#64 = DIRECTION ( 'NONE',  ( 0.0000000000000000000, -0.0000000000000000000, 1.000000000000000000 ) ) ;
#65 = ORIENTED_EDGE ( 'NONE', *, *, #30, .F. ) ;
#66 = AXIS2_PLACEMENT_3D ( 'NONE', #60, #59, #64 ) ;
#67 = FACE_OUTER_BOUND ( 'NONE', #39, .T. ) ;
#68 = VECTOR ( 'NONE', #78, 1000.000000000000000 ) ;
#69 = CARTESIAN_POINT ( 'NONE',  ( -154.2500000000000000, 91.75000000000001400, 2.000000000000000000 ) ) ;
#70 = LINE ( 'NONE', #69, #68 ) ;
#71 = PLANE ( 'NONE',  #66 ) ;
#72 = ORIENTED_EDGE ( 'NONE', *, *, #45, .F. ) ;
#73 = ORIENTED_EDGE ( 'NONE', *, *, #34, .F. ) ;
#74 = DIRECTION ( 'NONE',  ( 0.0000000000000000000, -1.000000000000000000, 0.0000000000000000000 ) ) ;
#75 = VECTOR ( 'NONE', #74, 1000.000000000000000 ) ;
#76 = CARTESIAN_POINT ( 'NONE',  ( -154.2500000000000000, 91.75000000000001400, 2.000000000000000000 ) ) ;
#77 = LINE ( 'NONE', #76, #75 ) ;
#78 = DIRECTION ( 'NONE',  ( -0.0000000000000000000, -0.0000000000000000000, -1.000000000000000000 ) ) ;
#79 = ORIENTED_EDGE ( 'NONE', *, *, #16, .F. ) ;
#80 = AXIS2_PLACEMENT_3D ( 'NONE', #96, #101, #89 ) ;
#81 = FACE_OUTER_BOUND ( 'NONE', #20, .T. ) ;
#82 = FACE_OUTER_BOUND ( 'NONE', #52, .T. ) ;
#83 = DIRECTION ( 'NONE',  ( 1.000000000000000000, 0.0000000000000000000, 0.0000000000000000000 ) ) ;
#84 = DIRECTION ( 'NONE',  ( -0.0000000000000000000, 0.0000000000000000000, 1.000000000000000000 ) ) ;
#85 = AXIS2_PLACEMENT_3D ( 'NONE', #97, #84, #83 ) ;
#86 = LINE ( 'NONE', #111, #99 ) ;
#87 = LINE ( 'NONE', #54, #115 ) ;
#88 = VECTOR ( 'NONE', #224, 1000.000000000000000 ) ;
#89 = DIRECTION ( 'NONE',  ( 0.0000000000000000000, -0.0000000000000000000, -1.000000000000000000 ) ) ;
#90 = FACE_OUTER_BOUND ( 'NONE', #15, .T. ) ;
#91 = CARTESIAN_POINT ( 'NONE',  ( -154.2500000000000000, 91.75000000000001400, 2.000000000000000000 ) ) ;
#92 = DIRECTION ( 'NONE',  ( -0.0000000000000000000, -0.0000000000000000000, -1.000000000000000000 ) ) ;
#93 = VECTOR ( 'NONE', #92, 1000.000000000000000 ) ;
#94 = CARTESIAN_POINT ( 'NONE',  ( 154.2500000000000000, 91.75000000000001400, 2.000000000000000000 ) ) ;
#95 = CARTESIAN_POINT ( 'NONE',  ( 154.2500000000000000, 91.75000000000001400, 2.000000000000000000 ) ) ;
#96 = CARTESIAN_POINT ( 'NONE',  ( -154.2500000000000000, 91.75000000000001400, 2.000000000000000000 ) ) ;
#97 = CARTESIAN_POINT ( 'NONE',  ( -154.2500000000000000, -91.74999999999998600, 2.000000000000000000 ) ) ;
#98 = PLANE ( 'NONE',  #85 ) ;
#99 = VECTOR ( 'NONE', #109, 1000.000000000000000 ) ;
#100 = PLANE ( 'NONE',  #108 ) ;
#101 = DIRECTION ( 'NONE',  ( 0.0000000000000000000, -1.000000000000000000, 0.0000000000000000000 ) ) ;
#102 = PLANE ( 'NONE',  #80 ) ;
#103 = DIRECTION ( 'NONE',  ( -1.000000000000000000, -0.0000000000000000000, -0.0000000000000000000 ) ) ;
#104 = LINE ( 'NONE', #94, #93 ) ;
#105 = DIRECTION ( 'NONE',  ( 0.0000000000000000000, 0.0000000000000000000, 1.000000000000000000 ) ) ;
#106 = DIRECTION ( 'NONE',  ( -1.000000000000000000, 0.0000000000000000000, 0.0000000000000000000 ) ) ;
#107 = CARTESIAN_POINT ( 'NONE',  ( 154.2500000000000000, 91.75000000000001400, 2.000000000000000000 ) ) ;
#108 = AXIS2_PLACEMENT_3D ( 'NONE', #107, #106, #105 ) ;
#109 = DIRECTION ( 'NONE',  ( -1.000000000000000000, -0.0000000000000000000, -0.0000000000000000000 ) ) ;
#110 = VECTOR ( 'NONE', #103, 1000.000000000000000 ) ;
#111 = CARTESIAN_POINT ( 'NONE',  ( -154.2500000000000000, 91.75000000000001400, 0.0000000000000000000 ) ) ;
#112 = DIRECTION ( 'NONE',  ( -0.0000000000000000000, 1.000000000000000000, -0.0000000000000000000 ) ) ;
#113 = CARTESIAN_POINT ( 'NONE',  ( 154.2500000000000000, -91.74999999999998600, 0.0000000000000000000 ) ) ;
#114 = CARTESIAN_POINT ( 'NONE',  ( 154.2500000000000000, -91.74999999999998600, 2.000000000000000000 ) ) ;
#115 = VECTOR ( 'NONE', #112, 1000.000000000000000 ) ;
#116 = CARTESIAN_POINT ( 'NONE',  ( -154.2500000000000000, -91.74999999999998600, 2.000000000000000000 ) ) ;
#117 = LINE ( 'NONE', #116, #88 ) ;
#118 = DIRECTION ( 'NONE',  ( 1.000000000000000000, 0.0000000000000000000, 0.0000000000000000000 ) ) ;
#119 = VECTOR ( 'NONE', #118, 1000.000000000000000 ) ;
#120 = CARTESIAN_POINT ( 'NONE',  ( -154.2500000000000000, -91.74999999999998600, 0.0000000000000000000 ) ) ;
#121 = LINE ( 'NONE', #120, #119 ) ;
#122 = CONTEXT_DEPENDENT_SHAPE_REPRESENTATION ( #144, #125 ) ;
#123 = APPLICATION_CONTEXT ( 'automotive_design' ) ;
#124 = NEXT_ASSEMBLY_USAGE_OCCURRENCE ( 'NAUO1', ' ', ' ', #149, #160, $ ) ;
#125 = PRODUCT_DEFINITION_SHAPE ( 'NONE', 'NONE',  #124 ) ;
#126 = SHAPE_DEFINITION_REPRESENTATION ( #146, #141 ) ;
#127 = AXIS2_PLACEMENT_3D ( 'NONE', #186, #143, #142 ) ;
#128 =( GEOMETRIC_REPRESENTATION_CONTEXT ( 3 ) GLOBAL_UNCERTAINTY_ASSIGNED_CONTEXT ( ( #129 ) ) GLOBAL_UNIT_ASSIGNED_CONTEXT ( ( #132, #131, #130 ) ) REPRESENTATION_CONTEXT ( 'NONE', 'WORKASPACE' ) );
#129 = UNCERTAINTY_MEASURE_WITH_UNIT (LENGTH_MEASURE( 1.000000000000000100E-005 ), #132, 'distance_accuracy_value', 'NONE');
#130 =( NAMED_UNIT ( * ) SI_UNIT ( $, .STERADIAN. ) SOLID_ANGLE_UNIT ( ) );
#131 =( NAMED_UNIT ( * ) PLANE_ANGLE_UNIT ( ) SI_UNIT ( $, .RADIAN. ) );
#132 =( LENGTH_UNIT ( ) NAMED_UNIT ( * ) SI_UNIT ( .MILLI., .METRE. ) );
#133 = DIRECTION ( 'NONE',  ( 1.000000000000000000, 0.0000000000000000000, 0.0000000000000000000 ) ) ;
#134 = DIRECTION ( 'NONE',  ( 0.0000000000000000000, 0.0000000000000000000, 1.000000000000000000 ) ) ;
#135 = CARTESIAN_POINT ( 'NONE',  ( 0.0000000000000000000, 0.0000000000000000000, 0.0000000000000000000 ) ) ;
#136 = AXIS2_PLACEMENT_3D ( 'NONE', #135, #134, #133 ) ;
#137 = DIRECTION ( 'NONE',  ( 1.000000000000000000, 0.0000000000000000000, 0.0000000000000000000 ) ) ;
#138 = DIRECTION ( 'NONE',  ( 0.0000000000000000000, 0.0000000000000000000, 1.000000000000000000 ) ) ;
#139 = CARTESIAN_POINT ( 'NONE',  ( 0.0000000000000000000, 0.0000000000000000000, 0.0000000000000000000 ) ) ;
#140 = AXIS2_PLACEMENT_3D ( 'NONE', #139, #138, #137 ) ;
#141 = SHAPE_REPRESENTATION ( '07700094', ( #127, #136 ), #128 ) ;
#142 = DIRECTION ( 'NONE',  ( 1.000000000000000000, 0.0000000000000000000, 0.0000000000000000000 ) ) ;
#143 = DIRECTION ( 'NONE',  ( 0.0000000000000000000, 0.0000000000000000000, 1.000000000000000000 ) ) ;
#144 =( REPRESENTATION_RELATIONSHIP ('NONE','NONE', #141, #210 ) REPRESENTATION_RELATIONSHIP_WITH_TRANSFORMATION ( #164 )SHAPE_REPRESENTATION_RELATIONSHIP( ) );
#145 = APPLICATION_CONTEXT ( 'automotive_design' ) ;
#146 = PRODUCT_DEFINITION_SHAPE ( 'NONE', 'NONE',  #149 ) ;
#147 = PRODUCT_RELATED_PRODUCT_CATEGORY ( 'part', '', ( #154 ) ) ;
#148 = PRODUCT_DEFINITION_FORMATION_WITH_SPECIFIED_SOURCE ( 'ANY', '', #154, .NOT_KNOWN. ) ;
#149 = PRODUCT_DEFINITION ( 'UNKNOWN', '', #148, #150 ) ;
#150 = PRODUCT_DEFINITION_CONTEXT ( 'detailed design', #152, 'design' ) ;
#151 = APPLICATION_PROTOCOL_DEFINITION ( 'draft international standard', 'automotive_design', 1998, #152 ) ;
#152 = APPLICATION_CONTEXT ( 'automotive_design' ) ;
#153 = SHAPE_DEFINITION_REPRESENTATION ( #157, #210 ) ;
#154 = PRODUCT ( '07700094', '07700094', '', ( #155 ) ) ;
#155 = PRODUCT_CONTEXT ( 'NONE', #123, 'mechanical' ) ;
#156 = APPLICATION_PROTOCOL_DEFINITION ( 'draft international standard', 'automotive_design', 1998, #123 ) ;
#157 = PRODUCT_DEFINITION_SHAPE ( 'NONE', 'NONE',  #160 ) ;
#158 = PRODUCT_RELATED_PRODUCT_CATEGORY ( 'part', '', ( #165 ) ) ;
#159 = PRODUCT_DEFINITION_FORMATION_WITH_SPECIFIED_SOURCE ( 'ANY', '', #165, .NOT_KNOWN. ) ;
#160 = PRODUCT_DEFINITION ( 'UNKNOWN', '', #159, #161 ) ;
#161 = PRODUCT_DEFINITION_CONTEXT ( 'detailed design', #163, 'design' ) ;
#162 = APPLICATION_PROTOCOL_DEFINITION ( 'draft international standard', 'automotive_design', 1998, #163 ) ;
#163 = APPLICATION_CONTEXT ( 'automotive_design' ) ;
#164 = ITEM_DEFINED_TRANSFORMATION ( 'NONE', 'NONE', #136,  #214 ) ;
#165 = PRODUCT ( '95440_Standard', '95440_Standard', '', ( #166 ) ) ;
#166 = PRODUCT_CONTEXT ( 'NONE', #145, 'mechanical' ) ;
#167 = APPLICATION_PROTOCOL_DEFINITION ( 'draft international standard', 'automotive_design', 1998, #145 ) ;
#168 = DIRECTION ( 'NONE',  ( 1.000000000000000000, 0.0000000000000000000, -0.0000000000000000000 ) ) ;
#169 = CARTESIAN_POINT ( 'NONE',  ( -154.2500000000000000, 91.75000000000001400, 2.000000000000000000 ) ) ;
#170 = AXIS2_PLACEMENT_3D ( 'NONE', #169, #168, #191 ) ;
#171 = PLANE ( 'NONE',  #170 ) ;
#172 = FACE_OUTER_BOUND ( 'NONE', #50, .T. ) ;
#173 =( GEOMETRIC_REPRESENTATION_CONTEXT ( 3 ) GLOBAL_UNCERTAINTY_ASSIGNED_CONTEXT ( ( #174 ) ) GLOBAL_UNIT_ASSIGNED_CONTEXT ( ( #177, #176, #175 ) ) REPRESENTATION_CONTEXT ( 'NONE', 'WORKASPACE' ) );
#174 = UNCERTAINTY_MEASURE_WITH_UNIT (LENGTH_MEASURE( 1.000000000000000100E-005 ), #177, 'distance_accuracy_value', 'NONE');
#175 =( NAMED_UNIT ( * ) SI_UNIT ( $, .STERADIAN. ) SOLID_ANGLE_UNIT ( ) );
#176 =( NAMED_UNIT ( * ) PLANE_ANGLE_UNIT ( ) SI_UNIT ( $, .RADIAN. ) );
#177 =( LENGTH_UNIT ( ) NAMED_UNIT ( * ) SI_UNIT ( .MILLI., .METRE. ) );
#178 = MECHANICAL_DESIGN_GEOMETRIC_PRESENTATION_REPRESENTATION (  '', ( #180 ), #173 ) ;
#179 = PRESENTATION_LAYER_ASSIGNMENT (  '', '', ( #180 ) ) ;
#180 = STYLED_ITEM ( 'NONE', ( #181 ), #48 ) ;
#181 = PRESENTATION_STYLE_ASSIGNMENT (( #193 ) ) ;
#182 = LINE ( 'NONE', #221, #223 ) ;
#183 = DIRECTION ( 'NONE',  ( 1.000000000000000000, 0.0000000000000000000, 0.0000000000000000000 ) ) ;
#184 = DIRECTION ( 'NONE',  ( -0.0000000000000000000, 0.0000000000000000000, 1.000000000000000000 ) ) ;
#185 = AXIS2_PLACEMENT_3D ( 'NONE', #187, #184, #183 ) ;
#186 = CARTESIAN_POINT ( 'NONE',  ( 0.0000000000000000000, 0.0000000000000000000, 0.0000000000000000000 ) ) ;
#187 = CARTESIAN_POINT ( 'NONE',  ( -154.2500000000000000, -91.74999999999998600, 0.0000000000000000000 ) ) ;
#188 = PLANE ( 'NONE',  #185 ) ;
#189 = FACE_OUTER_BOUND ( 'NONE', #62, .T. ) ;
#190 = CARTESIAN_POINT ( 'NONE',  ( 154.2500000000000000, 91.75000000000001400, 0.0000000000000000000 ) ) ;
#191 = DIRECTION ( 'NONE',  ( -0.0000000000000000000, 0.0000000000000000000, -1.000000000000000000 ) ) ;
#192 = CARTESIAN_POINT ( 'NONE',  ( -154.2500000000000000, -91.74999999999998600, 2.000000000000000000 ) ) ;
#193 = SURFACE_STYLE_USAGE ( .BOTH. , #194 ) ;
#194 = SURFACE_SIDE_STYLE ('',( #195 ) ) ;
#195 = SURFACE_STYLE_FILL_AREA ( #196 ) ;
#196 = FILL_AREA_STYLE ('',( #197 ) ) ;
#197 = FILL_AREA_STYLE_COLOUR ( '', #198 ) ;
#198 = COLOUR_RGB ( '',0.7529411764705882200, 0.7529411764705882200, 0.7529411764705882200 ) ;
#199 = CARTESIAN_POINT ( 'NONE',  ( -154.2500000000000000, 91.75000000000001400, 0.0000000000000000000 ) ) ;
#200 = CARTESIAN_POINT ( 'NONE',  ( -154.2500000000000000, -91.74999999999998600, 0.0000000000000000000 ) ) ;
#201 = DIRECTION ( 'NONE',  ( 0.0000000000000000000, -1.000000000000000000, 0.0000000000000000000 ) ) ;
#202 = VECTOR ( 'NONE', #201, 1000.000000000000000 ) ;
#203 = CARTESIAN_POINT ( 'NONE',  ( -154.2500000000000000, 91.75000000000001400, 0.0000000000000000000 ) ) ;
#204 = LINE ( 'NONE', #203, #202 ) ;
#205 = LINE ( 'NONE', #192, #208 ) ;
#206 = CARTESIAN_POINT ( 'NONE',  ( -154.2500000000000000, -91.74999999999998600, 2.000000000000000000 ) ) ;
#207 = DIRECTION ( 'NONE',  ( -0.0000000000000000000, -0.0000000000000000000, -1.000000000000000000 ) ) ;
#208 = VECTOR ( 'NONE', #207, 1000.000000000000000 ) ;
#209 = SHAPE_REPRESENTATION_RELATIONSHIP ( 'NONE' , 'NONE' ,  #210, #215 ) ;
#210 = SHAPE_REPRESENTATION ( '95440_Standard', ( #214 ), #216 ) ;
#211 = DIRECTION ( 'NONE',  ( 1.000000000000000000, 0.0000000000000000000, 0.0000000000000000000 ) ) ;
#212 = DIRECTION ( 'NONE',  ( 0.0000000000000000000, 0.0000000000000000000, 1.000000000000000000 ) ) ;
#213 = CARTESIAN_POINT ( 'NONE',  ( 0.0000000000000000000, 0.0000000000000000000, 0.0000000000000000000 ) ) ;
#214 = AXIS2_PLACEMENT_3D ( 'NONE', #213, #212, #211 ) ;
#215 = ADVANCED_BREP_SHAPE_REPRESENTATION ( '', ( #48, #214 ), #216 ) ;
#216 =( GEOMETRIC_REPRESENTATION_CONTEXT ( 3 ) GLOBAL_UNCERTAINTY_ASSIGNED_CONTEXT ( ( #217 ) ) GLOBAL_UNIT_ASSIGNED_CONTEXT ( ( #220, #219, #218 ) ) REPRESENTATION_CONTEXT ( 'NONE', 'WORKASPACE' ) );
#217 = UNCERTAINTY_MEASURE_WITH_UNIT (LENGTH_MEASURE( 1.000000000000000100E-005 ), #220, 'distance_accuracy_value', 'NONE');
#218 =( NAMED_UNIT ( * ) SI_UNIT ( $, .STERADIAN. ) SOLID_ANGLE_UNIT ( ) );
#219 =( NAMED_UNIT ( * ) PLANE_ANGLE_UNIT ( ) SI_UNIT ( $, .RADIAN. ) );
#220 =( LENGTH_UNIT ( ) NAMED_UNIT ( * ) SI_UNIT ( .MILLI., .METRE. ) );
#221 = CARTESIAN_POINT ( 'NONE',  ( 154.2500000000000000, -91.74999999999998600, 2.000000000000000000 ) ) ;
#222 = DIRECTION ( 'NONE',  ( -0.0000000000000000000, -0.0000000000000000000, -1.000000000000000000 ) ) ;
#223 = VECTOR ( 'NONE', #222, 1000.000000000000000 ) ;
#224 = DIRECTION ( 'NONE',  ( 1.000000000000000000, 0.0000000000000000000, 0.0000000000000000000 ) ) ;
ENDSEC;
END-ISO-10303-21;
