ISO-10303-21;
HEADER;
FILE_DESCRIPTION (( 'STEP AP214' ),
    '1' );
FILE_NAME ('94158.STEP',
    '2022-04-21T11:07:43',
    ( 'Ifina' ),
    ( 'Ifina' ),
    'SwSTEP 2.0',
    'SolidWorks 2020',
    '' );
FILE_SCHEMA (( 'AUTOMOTIVE_DESIGN' ));
ENDSEC;

DATA;
#1 =( NAMED_UNIT ( * ) PLANE_ANGLE_UNIT ( ) SI_UNIT ( $, .RADIAN. ) );
#2 = UNCERTAINTY_MEASURE_WITH_UNIT (LENGTH_MEASURE( 1.000000000000000082E-05 ), #29, 'distance_accuracy_value', 'NONE');
#3 = CIRCLE ( 'NONE', #81, 20.00000000000000000 ) ;
#4 = ORIENTED_EDGE ( 'NONE', *, *, #67, .T. ) ;
#5 = DIRECTION ( 'NONE',  ( 0.000000000000000000, 0.000000000000000000, 1.000000000000000000 ) ) ;
#6 = DIRECTION ( 'NONE',  ( 0.000000000000000000, 0.000000000000000000, 1.000000000000000000 ) ) ;
#7 = EDGE_LOOP ( 'NONE', ( #111 ) ) ;
#8 = SURFACE_STYLE_FILL_AREA ( #104 ) ;
#9 = PRODUCT_CONTEXT ( 'NONE', #84, 'mechanical' ) ;
#10 = AXIS2_PLACEMENT_3D ( 'NONE', #15, #75, #68 ) ;
#11 = CARTESIAN_POINT ( 'NONE',  ( 20.00000000000000000, 0.000000000000000000, 0.000000000000000000 ) ) ;
#12 = CARTESIAN_POINT ( 'NONE',  ( 0.000000000000000000, 0.000000000000000000, -3000.000000000000000 ) ) ;
#13 = DIRECTION ( 'NONE',  ( 1.000000000000000000, 0.000000000000000000, -0.000000000000000000 ) ) ;
#14 = PLANE ( 'NONE',  #83 ) ;
#15 = CARTESIAN_POINT ( 'NONE',  ( 0.000000000000000000, 0.000000000000000000, -3000.000000000000000 ) ) ;
#16 = CARTESIAN_POINT ( 'NONE',  ( 20.00000000000000000, 0.000000000000000000, -3000.000000000000000 ) ) ;
#17 = VERTEX_POINT ( 'NONE', #16 ) ;
#18 = MECHANICAL_DESIGN_GEOMETRIC_PRESENTATION_REPRESENTATION (  '', ( #91 ), #41 ) ;
#19 = ORIENTED_EDGE ( 'NONE', *, *, #67, .F. ) ;
#20 = CLOSED_SHELL ( 'NONE', ( #101, #31, #98, #28 ) ) ;
#21 = DIRECTION ( 'NONE',  ( 0.000000000000000000, 0.000000000000000000, 1.000000000000000000 ) ) ;
#22 = AXIS2_PLACEMENT_3D ( 'NONE', #37, #62, #122 ) ;
#23 =( GEOMETRIC_REPRESENTATION_CONTEXT ( 3 ) GLOBAL_UNCERTAINTY_ASSIGNED_CONTEXT ( ( #38 ) ) GLOBAL_UNIT_ASSIGNED_CONTEXT ( ( #116, #1, #125 ) ) REPRESENTATION_CONTEXT ( 'NONE', 'WORKASPACE' ) );
#24 = EDGE_CURVE ( 'NONE', #90, #90, #69, .T. ) ;
#25 = FACE_OUTER_BOUND ( 'NONE', #7, .T. ) ;
#26 = ORIENTED_EDGE ( 'NONE', *, *, #126, .T. ) ;
#27 = PRESENTATION_STYLE_ASSIGNMENT (( #59 ) ) ;
#28 = ADVANCED_FACE ( 'NONE', ( #113, #25 ), #35, .F. ) ;
#29 =( LENGTH_UNIT ( ) NAMED_UNIT ( * ) SI_UNIT ( .MILLI., .METRE. ) );
#30 = APPLICATION_PROTOCOL_DEFINITION ( 'draft international standard', 'automotive_design', 1998, #60 ) ;
#31 = ADVANCED_FACE ( 'NONE', ( #114, #45 ), #63, .F. ) ;
#32 = CARTESIAN_POINT ( 'NONE',  ( 0.000000000000000000, 0.000000000000000000, 0.000000000000000000 ) ) ;
#33 = DIRECTION ( 'NONE',  ( 1.000000000000000000, 0.000000000000000000, 0.000000000000000000 ) ) ;
#34 = AXIS2_PLACEMENT_3D ( 'NONE', #12, #21, #13 ) ;
#35 = CYLINDRICAL_SURFACE ( 'NONE', #77, 20.00000000000000000 ) ;
#36 = DIRECTION ( 'NONE',  ( 1.000000000000000000, 0.000000000000000000, 0.000000000000000000 ) ) ;
#37 = CARTESIAN_POINT ( 'NONE',  ( 0.000000000000000000, 0.000000000000000000, -3000.000000000000000 ) ) ;
#38 = UNCERTAINTY_MEASURE_WITH_UNIT (LENGTH_MEASURE( 1.000000000000000082E-05 ), #116, 'distance_accuracy_value', 'NONE');
#39 = DIRECTION ( 'NONE',  ( 0.000000000000000000, 0.000000000000000000, 1.000000000000000000 ) ) ;
#40 = DIRECTION ( 'NONE',  ( 1.000000000000000000, 0.000000000000000000, 0.000000000000000000 ) ) ;
#41 =( GEOMETRIC_REPRESENTATION_CONTEXT ( 3 ) GLOBAL_UNCERTAINTY_ASSIGNED_CONTEXT ( ( #2 ) ) GLOBAL_UNIT_ASSIGNED_CONTEXT ( ( #29, #134, #58 ) ) REPRESENTATION_CONTEXT ( 'NONE', 'WORKASPACE' ) );
#42 = AXIS2_PLACEMENT_3D ( 'NONE', #72, #52, #100 ) ;
#43 = PRODUCT_DEFINITION_FORMATION_WITH_SPECIFIED_SOURCE ( 'ANY', '', #54, .NOT_KNOWN. ) ;
#44 =( NAMED_UNIT ( * ) PLANE_ANGLE_UNIT ( ) SI_UNIT ( $, .RADIAN. ) );
#45 = FACE_OUTER_BOUND ( 'NONE', #65, .T. ) ;
#46 = FILL_AREA_STYLE_COLOUR ( '', #121 ) ;
#47 = AXIS2_PLACEMENT_3D ( 'NONE', #32, #105, #36 ) ;
#48 = FACE_OUTER_BOUND ( 'NONE', #129, .T. ) ;
#49 = VERTEX_POINT ( 'NONE', #11 ) ;
#50 = MECHANICAL_DESIGN_GEOMETRIC_PRESENTATION_REPRESENTATION (  '', ( #118 ), #103 ) ;
#51 = PRESENTATION_LAYER_ASSIGNMENT (  '', '', ( #118 ) ) ;
#52 = DIRECTION ( 'NONE',  ( 0.000000000000000000, 0.000000000000000000, 1.000000000000000000 ) ) ;
#53 = DIRECTION ( 'NONE',  ( 1.000000000000000000, 0.000000000000000000, 0.000000000000000000 ) ) ;
#55 = CYLINDRICAL_SURFACE ( 'NONE', #22, 24.00000000000000355 ) ;
#54 = PRODUCT ( '94158', '94158', '', ( #9 ) ) ;
#56 = EDGE_CURVE ( 'NONE', #49, #49, #102, .T. ) ;
#57 = SURFACE_STYLE_USAGE ( .BOTH. , #89 ) ;
#58 =( NAMED_UNIT ( * ) SI_UNIT ( $, .STERADIAN. ) SOLID_ANGLE_UNIT ( ) );
#59 = SURFACE_STYLE_USAGE ( .BOTH. , #108 ) ;
#60 = APPLICATION_CONTEXT ( 'automotive_design' ) ;
#61 = ORIENTED_EDGE ( 'NONE', *, *, #126, .F. ) ;
#62 = DIRECTION ( 'NONE',  ( 0.000000000000000000, 0.000000000000000000, 1.000000000000000000 ) ) ;
#63 = PLANE ( 'NONE',  #34 ) ;
#64 = PRODUCT_DEFINITION_SHAPE ( 'NONE', 'NONE',  #130 ) ;
#65 = EDGE_LOOP ( 'NONE', ( #19 ) ) ;
#66 =( NAMED_UNIT ( * ) SI_UNIT ( $, .STERADIAN. ) SOLID_ANGLE_UNIT ( ) );
#67 = EDGE_CURVE ( 'NONE', #93, #93, #97, .T. ) ;
#68 = DIRECTION ( 'NONE',  ( 1.000000000000000000, 0.000000000000000000, 0.000000000000000000 ) ) ;
#69 = CIRCLE ( 'NONE', #42, 24.00000000000000355 ) ;
#70 = FILL_AREA_STYLE_COLOUR ( '', #112 ) ;
#71 = EDGE_LOOP ( 'NONE', ( #4 ) ) ;
#72 = CARTESIAN_POINT ( 'NONE',  ( 0.000000000000000000, 0.000000000000000000, 0.000000000000000000 ) ) ;
#73 = FACE_OUTER_BOUND ( 'NONE', #74, .T. ) ;
#74 = EDGE_LOOP ( 'NONE', ( #128 ) ) ;
#75 = DIRECTION ( 'NONE',  ( 0.000000000000000000, 0.000000000000000000, 1.000000000000000000 ) ) ;
#76 = PRESENTATION_STYLE_ASSIGNMENT (( #57 ) ) ;
#77 = AXIS2_PLACEMENT_3D ( 'NONE', #106, #6, #33 ) ;
#78 = CARTESIAN_POINT ( 'NONE',  ( 24.00000000000000355, 0.000000000000000000, -3000.000000000000000 ) ) ;
#79 = PRODUCT_DEFINITION_CONTEXT ( 'detailed design', #60, 'design' ) ;
#80 = SHAPE_DEFINITION_REPRESENTATION ( #64, #133 ) ;
#81 = AXIS2_PLACEMENT_3D ( 'NONE', #86, #5, #53 ) ;
#82 = CARTESIAN_POINT ( 'NONE',  ( 24.00000000000000355, 0.000000000000000000, 0.000000000000000000 ) ) ;
#83 = AXIS2_PLACEMENT_3D ( 'NONE', #115, #123, #87 ) ;
#84 = APPLICATION_CONTEXT ( 'automotive_design' ) ;
#85 = ORIENTED_EDGE ( 'NONE', *, *, #56, .F. ) ;
#86 = CARTESIAN_POINT ( 'NONE',  ( 0.000000000000000000, 0.000000000000000000, -3000.000000000000000 ) ) ;
#87 = DIRECTION ( 'NONE',  ( 1.000000000000000000, 0.000000000000000000, -0.000000000000000000 ) ) ;
#88 = EDGE_LOOP ( 'NONE', ( #85 ) ) ;
#89 = SURFACE_SIDE_STYLE ('',( #8 ) ) ;
#90 = VERTEX_POINT ( 'NONE', #82 ) ;
#91 = STYLED_ITEM ( 'NONE', ( #27 ), #133 ) ;
#92 = CARTESIAN_POINT ( 'NONE',  ( 0.000000000000000000, 0.000000000000000000, 0.000000000000000000 ) ) ;
#93 = VERTEX_POINT ( 'NONE', #78 ) ;
#94 = SURFACE_STYLE_FILL_AREA ( #132 ) ;
#95 = UNCERTAINTY_MEASURE_WITH_UNIT (LENGTH_MEASURE( 1.000000000000000082E-05 ), #131, 'distance_accuracy_value', 'NONE');
#96 = EDGE_LOOP ( 'NONE', ( #61 ) ) ;
#97 = CIRCLE ( 'NONE', #10, 24.00000000000000355 ) ;
#98 = ADVANCED_FACE ( 'NONE', ( #99, #48 ), #14, .T. ) ;
#99 = FACE_BOUND ( 'NONE', #88, .T. ) ;
#100 = DIRECTION ( 'NONE',  ( 1.000000000000000000, 0.000000000000000000, 0.000000000000000000 ) ) ;
#101 = ADVANCED_FACE ( 'NONE', ( #124, #73 ), #55, .T. ) ;
#102 = CIRCLE ( 'NONE', #47, 20.00000000000000000 ) ;
#103 =( GEOMETRIC_REPRESENTATION_CONTEXT ( 3 ) GLOBAL_UNCERTAINTY_ASSIGNED_CONTEXT ( ( #95 ) ) GLOBAL_UNIT_ASSIGNED_CONTEXT ( ( #131, #44, #66 ) ) REPRESENTATION_CONTEXT ( 'NONE', 'WORKASPACE' ) );
#104 = FILL_AREA_STYLE ('',( #46 ) ) ;
#105 = DIRECTION ( 'NONE',  ( 0.000000000000000000, 0.000000000000000000, 1.000000000000000000 ) ) ;
#106 = CARTESIAN_POINT ( 'NONE',  ( 0.000000000000000000, 0.000000000000000000, -3000.000000000000000 ) ) ;
#107 = PRESENTATION_LAYER_ASSIGNMENT (  '', '', ( #91 ) ) ;
#108 = SURFACE_SIDE_STYLE ('',( #94 ) ) ;
#109 = PRODUCT_RELATED_PRODUCT_CATEGORY ( 'part', '', ( #54 ) ) ;
#110 = MANIFOLD_SOLID_BREP ( 'Linear austragen1', #20 ) ;
#111 = ORIENTED_EDGE ( 'NONE', *, *, #56, .T. ) ;
#112 = COLOUR_RGB ( '',0.7529411764705882248, 0.7529411764705882248, 0.7529411764705882248 ) ;
#113 = FACE_OUTER_BOUND ( 'NONE', #96, .T. ) ;
#114 = FACE_BOUND ( 'NONE', #127, .T. ) ;
#115 = CARTESIAN_POINT ( 'NONE',  ( 0.000000000000000000, 0.000000000000000000, 0.000000000000000000 ) ) ;
#116 =( LENGTH_UNIT ( ) NAMED_UNIT ( * ) SI_UNIT ( .MILLI., .METRE. ) );
#117 = APPLICATION_PROTOCOL_DEFINITION ( 'draft international standard', 'automotive_design', 1998, #84 ) ;
#118 = STYLED_ITEM ( 'NONE', ( #76 ), #110 ) ;
#119 = AXIS2_PLACEMENT_3D ( 'NONE', #92, #39, #40 ) ;
#120 = ORIENTED_EDGE ( 'NONE', *, *, #24, .T. ) ;
#121 = COLOUR_RGB ( '',0.7529411764705882248, 0.7529411764705882248, 0.7529411764705882248 ) ;
#122 = DIRECTION ( 'NONE',  ( 1.000000000000000000, 0.000000000000000000, 0.000000000000000000 ) ) ;
#123 = DIRECTION ( 'NONE',  ( 0.000000000000000000, 0.000000000000000000, 1.000000000000000000 ) ) ;
#124 = FACE_OUTER_BOUND ( 'NONE', #71, .T. ) ;
#125 =( NAMED_UNIT ( * ) SI_UNIT ( $, .STERADIAN. ) SOLID_ANGLE_UNIT ( ) );
#126 = EDGE_CURVE ( 'NONE', #17, #17, #3, .T. ) ;
#127 = EDGE_LOOP ( 'NONE', ( #26 ) ) ;
#128 = ORIENTED_EDGE ( 'NONE', *, *, #24, .F. ) ;
#129 = EDGE_LOOP ( 'NONE', ( #120 ) ) ;
#130 = PRODUCT_DEFINITION ( 'UNKNOWN', '', #43, #79 ) ;
#131 =( LENGTH_UNIT ( ) NAMED_UNIT ( * ) SI_UNIT ( .MILLI., .METRE. ) );
#132 = FILL_AREA_STYLE ('',( #70 ) ) ;
#133 = ADVANCED_BREP_SHAPE_REPRESENTATION ( '94158', ( #110, #119 ), #23 ) ;
#134 =( NAMED_UNIT ( * ) PLANE_ANGLE_UNIT ( ) SI_UNIT ( $, .RADIAN. ) );
ENDSEC;
END-ISO-10303-21;
